ISO-10303-21;
HEADER;
FILE_DESCRIPTION (( 'STEP AP214' ),
    '1' );
FILE_NAME ('5901984_STEP.STEP',
    '2026-01-15T08:39:25',
    ( '' ),
    ( '' ),
    'SwSTEP 2.0',
    'SolidWorks 2024',
    '' );
FILE_SCHEMA (( 'AUTOMOTIVE_DESIGN' ));
ENDSEC;

DATA;
#1 = DIRECTION ( 'NONE',  ( 1.000000000000000000, 0.000000000000000000, 0.000000000000000000 ) ) ;
#2 = DIRECTION ( 'NONE',  ( -1.000000000000000000, 0.000000000000000000, 0.000000000000000000 ) ) ;
#3 = ORIENTED_EDGE ( 'NONE', *, *, #151, .F. ) ;
#4 = CARTESIAN_POINT ( 'NONE',  ( 0.000000000000000000, 0.000000000000000000, -150.0000000000000000 ) ) ;
#5 = APPLICATION_PROTOCOL_DEFINITION ( 'draft international standard', 'automotive_design', 1998, #153 ) ;
#6 = UNCERTAINTY_MEASURE_WITH_UNIT (LENGTH_MEASURE( 1.000000000000000082E-05 ), #116, 'distance_accuracy_value', 'NONE');
#7 = PLANE ( 'NONE',  #91 ) ;
#8 = AXIS2_PLACEMENT_3D ( 'NONE', #131, #74, #1 ) ;
#9 = PRODUCT_RELATED_PRODUCT_CATEGORY ( 'part', '', ( #38 ) ) ;
#10 = ADVANCED_FACE ( 'NONE', ( #68 ), #86, .T. ) ;
#11 = VERTEX_POINT ( 'NONE', #114 ) ;
#12 = CARTESIAN_POINT ( 'NONE',  ( -55.00000000000000000, 6.000000000000000000, 150.0000000000000000 ) ) ;
#13 = LINE ( 'NONE', #100, #80 ) ;
#14 = DIRECTION ( 'NONE',  ( 1.000000000000000000, 0.000000000000000000, 0.000000000000000000 ) ) ;
#15 = EDGE_CURVE ( 'NONE', #66, #26, #57, .T. ) ;
#16 = VERTEX_POINT ( 'NONE', #47 ) ;
#17 = LINE ( 'NONE', #173, #34 ) ;
#18 = CARTESIAN_POINT ( 'NONE',  ( -55.00000000000000000, -6.000000000000000000, -150.0000000000000000 ) ) ;
#19 = FACE_OUTER_BOUND ( 'NONE', #137, .T. ) ;
#20 = ORIENTED_EDGE ( 'NONE', *, *, #49, .F. ) ;
#21 = VECTOR ( 'NONE', #130, 1000.000000000000000 ) ;
#22 = DIRECTION ( 'NONE',  ( 0.000000000000000000, 0.000000000000000000, 1.000000000000000000 ) ) ;
#23 = CLOSED_SHELL ( 'NONE', ( #125, #25, #24, #10, #78, #123 ) ) ;
#24 = ADVANCED_FACE ( 'NONE', ( #19 ), #104, .T. ) ;
#25 = ADVANCED_FACE ( 'NONE', ( #140 ), #132, .F. ) ;
#26 = VERTEX_POINT ( 'NONE', #115 ) ;
#27 = DIRECTION ( 'NONE',  ( 0.000000000000000000, -1.000000000000000000, 0.000000000000000000 ) ) ;
#28 = DIRECTION ( 'NONE',  ( 0.000000000000000000, 0.000000000000000000, 1.000000000000000000 ) ) ;
#29 = ORIENTED_EDGE ( 'NONE', *, *, #152, .F. ) ;
#30 = SURFACE_SIDE_STYLE ('',( #69 ) ) ;
#31 = DIRECTION ( 'NONE',  ( 0.000000000000000000, 0.000000000000000000, -1.000000000000000000 ) ) ;
#32 = CARTESIAN_POINT ( 'NONE',  ( -55.00000000000000000, 6.000000000000000000, -150.0000000000000000 ) ) ;
#33 = ORIENTED_EDGE ( 'NONE', *, *, #184, .T. ) ;
#34 = VECTOR ( 'NONE', #171, 1000.000000000000000 ) ;
#35 =( NAMED_UNIT ( * ) SI_UNIT ( $, .STERADIAN. ) SOLID_ANGLE_UNIT ( ) );
#36 = EDGE_CURVE ( 'NONE', #26, #146, #46, .T. ) ;
#37 = APPLICATION_PROTOCOL_DEFINITION ( 'draft international standard', 'automotive_design', 1998, #182 ) ;
#38 = PRODUCT ( '5901984_STEP', '5901984_STEP', '', ( #177 ) ) ;
#39 = VECTOR ( 'NONE', #22, 1000.000000000000000 ) ;
#40 = ORIENTED_EDGE ( 'NONE', *, *, #15, .T. ) ;
#41 = LINE ( 'NONE', #73, #181 ) ;
#42 = CARTESIAN_POINT ( 'NONE',  ( 55.00000000000000000, 6.000000000000000000, 150.0000000000000000 ) ) ;
#43 = ORIENTED_EDGE ( 'NONE', *, *, #150, .T. ) ;
#44 = LINE ( 'NONE', #87, #21 ) ;
#45 = ORIENTED_EDGE ( 'NONE', *, *, #184, .F. ) ;
#46 = LINE ( 'NONE', #164, #81 ) ;
#47 = CARTESIAN_POINT ( 'NONE',  ( 55.00000000000000000, -6.000000000000000000, 150.0000000000000000 ) ) ;
#48 = DIRECTION ( 'NONE',  ( 1.000000000000000000, 0.000000000000000000, 0.000000000000000000 ) ) ;
#49 = EDGE_CURVE ( 'NONE', #66, #159, #89, .T. ) ;
#50 = AXIS2_PLACEMENT_3D ( 'NONE', #139, #48, #70 ) ;
#51 = ORIENTED_EDGE ( 'NONE', *, *, #92, .T. ) ;
#52 = DIRECTION ( 'NONE',  ( 0.000000000000000000, 1.000000000000000000, 0.000000000000000000 ) ) ;
#53 = ORIENTED_EDGE ( 'NONE', *, *, #64, .F. ) ;
#54 = CARTESIAN_POINT ( 'NONE',  ( 55.00000000000000000, 6.000000000000000000, -150.0000000000000000 ) ) ;
#55 = LINE ( 'NONE', #178, #154 ) ;
#56 = VERTEX_POINT ( 'NONE', #102 ) ;
#57 = LINE ( 'NONE', #76, #65 ) ;
#58 = AXIS2_PLACEMENT_3D ( 'NONE', #175, #85, #134 ) ;
#59 = FACE_OUTER_BOUND ( 'NONE', #72, .T. ) ;
#60 = PRODUCT_DEFINITION ( 'UNKNOWN', '', #183, #77 ) ;
#61 = AXIS2_PLACEMENT_3D ( 'NONE', #148, #62, #179 ) ;
#62 = DIRECTION ( 'NONE',  ( 0.000000000000000000, 0.000000000000000000, 1.000000000000000000 ) ) ;
#63 =( GEOMETRIC_REPRESENTATION_CONTEXT ( 3 ) GLOBAL_UNCERTAINTY_ASSIGNED_CONTEXT ( ( #6 ) ) GLOBAL_UNIT_ASSIGNED_CONTEXT ( ( #116, #93, #120 ) ) REPRESENTATION_CONTEXT ( 'NONE', 'WORKASPACE' ) );
#64 = EDGE_CURVE ( 'NONE', #56, #16, #13, .T. ) ;
#65 = VECTOR ( 'NONE', #2, 1000.000000000000000 ) ;
#66 = VERTEX_POINT ( 'NONE', #157 ) ;
#67 = DIRECTION ( 'NONE',  ( 0.000000000000000000, -1.000000000000000000, 0.000000000000000000 ) ) ;
#68 = FACE_OUTER_BOUND ( 'NONE', #172, .T. ) ;
#69 = SURFACE_STYLE_FILL_AREA ( #96 ) ;
#70 = DIRECTION ( 'NONE',  ( 0.000000000000000000, 1.000000000000000000, 0.000000000000000000 ) ) ;
#71 = DIRECTION ( 'NONE',  ( -1.000000000000000000, 0.000000000000000000, 0.000000000000000000 ) ) ;
#72 = EDGE_LOOP ( 'NONE', ( #185, #51, #75, #162 ) ) ;
#73 = CARTESIAN_POINT ( 'NONE',  ( 55.00000000000000000, -6.000000000000000000, -150.0000000000000000 ) ) ;
#74 = DIRECTION ( 'NONE',  ( 0.000000000000000000, 0.000000000000000000, 1.000000000000000000 ) ) ;
#75 = ORIENTED_EDGE ( 'NONE', *, *, #128, .T. ) ;
#76 = CARTESIAN_POINT ( 'NONE',  ( -55.00000000000000000, 6.000000000000000000, -150.0000000000000000 ) ) ;
#77 = PRODUCT_DEFINITION_CONTEXT ( 'detailed design', #153, 'design' ) ;
#78 = ADVANCED_FACE ( 'NONE', ( #113 ), #7, .T. ) ;
#79 =( GEOMETRIC_REPRESENTATION_CONTEXT ( 3 ) GLOBAL_UNCERTAINTY_ASSIGNED_CONTEXT ( ( #117 ) ) GLOBAL_UNIT_ASSIGNED_CONTEXT ( ( #83, #147, #35 ) ) REPRESENTATION_CONTEXT ( 'NONE', 'WORKASPACE' ) );
#80 = VECTOR ( 'NONE', #88, 1000.000000000000000 ) ;
#81 = VECTOR ( 'NONE', #163, 1000.000000000000000 ) ;
#82 = VERTEX_POINT ( 'NONE', #18 ) ;
#83 =( LENGTH_UNIT ( ) NAMED_UNIT ( * ) SI_UNIT ( .MILLI., .METRE. ) );
#84 = PLANE ( 'NONE',  #50 ) ;
#85 = DIRECTION ( 'NONE',  ( -0.000000000000000000, 1.000000000000000000, 0.000000000000000000 ) ) ;
#86 = PLANE ( 'NONE',  #136 ) ;
#87 = CARTESIAN_POINT ( 'NONE',  ( -55.00000000000000000, 6.000000000000000000, 150.0000000000000000 ) ) ;
#88 = DIRECTION ( 'NONE',  ( 1.000000000000000000, 0.000000000000000000, 0.000000000000000000 ) ) ;
#89 = LINE ( 'NONE', #176, #169 ) ;
#90 = ORIENTED_EDGE ( 'NONE', *, *, #36, .F. ) ;
#91 = AXIS2_PLACEMENT_3D ( 'NONE', #143, #27, #31 ) ;
#92 = EDGE_CURVE ( 'NONE', #159, #146, #55, .T. ) ;
#93 =( NAMED_UNIT ( * ) PLANE_ANGLE_UNIT ( ) SI_UNIT ( $, .RADIAN. ) );
#94 = STYLED_ITEM ( 'NONE', ( #112 ), #166 ) ;
#95 = ORIENTED_EDGE ( 'NONE', *, *, #151, .T. ) ;
#96 = FILL_AREA_STYLE ('',( #127 ) ) ;
#97 = LINE ( 'NONE', #42, #106 ) ;
#98 = EDGE_LOOP ( 'NONE', ( #53, #45, #95, #111 ) ) ;
#99 = LINE ( 'NONE', #54, #108 ) ;
#100 = CARTESIAN_POINT ( 'NONE',  ( -55.00000000000000000, -6.000000000000000000, 150.0000000000000000 ) ) ;
#101 = ORIENTED_EDGE ( 'NONE', *, *, #165, .F. ) ;
#102 = CARTESIAN_POINT ( 'NONE',  ( -55.00000000000000000, -6.000000000000000000, 150.0000000000000000 ) ) ;
#103 = ORIENTED_EDGE ( 'NONE', *, *, #36, .T. ) ;
#104 = PLANE ( 'NONE',  #58 ) ;
#105 = SHAPE_DEFINITION_REPRESENTATION ( #121, #124 ) ;
#106 = VECTOR ( 'NONE', #133, 1000.000000000000000 ) ;
#107 = EDGE_CURVE ( 'NONE', #16, #159, #97, .T. ) ;
#108 = VECTOR ( 'NONE', #52, 1000.000000000000000 ) ;
#109 = ORIENTED_EDGE ( 'NONE', *, *, #128, .F. ) ;
#110 = CARTESIAN_POINT ( 'NONE',  ( -55.00000000000000000, 6.000000000000000000, -150.0000000000000000 ) ) ;
#111 = ORIENTED_EDGE ( 'NONE', *, *, #165, .T. ) ;
#112 = PRESENTATION_STYLE_ASSIGNMENT (( #156 ) ) ;
#113 = FACE_OUTER_BOUND ( 'NONE', #98, .T. ) ;
#114 = CARTESIAN_POINT ( 'NONE',  ( 55.00000000000000000, -6.000000000000000000, -150.0000000000000000 ) ) ;
#115 = CARTESIAN_POINT ( 'NONE',  ( -55.00000000000000000, 6.000000000000000000, -150.0000000000000000 ) ) ;
#116 =( LENGTH_UNIT ( ) NAMED_UNIT ( * ) SI_UNIT ( .MILLI., .METRE. ) );
#117 = UNCERTAINTY_MEASURE_WITH_UNIT (LENGTH_MEASURE( 1.000000000000000082E-05 ), #83, 'distance_accuracy_value', 'NONE');
#118 = FACE_OUTER_BOUND ( 'NONE', #144, .T. ) ;
#119 = ORIENTED_EDGE ( 'NONE', *, *, #152, .T. ) ;
#120 =( NAMED_UNIT ( * ) SI_UNIT ( $, .STERADIAN. ) SOLID_ANGLE_UNIT ( ) );
#121 = PRODUCT_DEFINITION_SHAPE ( 'NONE', 'NONE',  #60 ) ;
#122 = MECHANICAL_DESIGN_GEOMETRIC_PRESENTATION_REPRESENTATION (  '', ( #94 ), #79 ) ;
#123 = ADVANCED_FACE ( 'NONE', ( #118 ), #84, .T. ) ;
#124 = ADVANCED_BREP_SHAPE_REPRESENTATION ( '5901984_STEP', ( #166, #61 ), #63 ) ;
#125 = ADVANCED_FACE ( 'NONE', ( #59 ), #161, .T. ) ;
#126 = ORIENTED_EDGE ( 'NONE', *, *, #15, .F. ) ;
#127 = FILL_AREA_STYLE_COLOUR ( '', #135 ) ;
#128 = EDGE_CURVE ( 'NONE', #146, #56, #44, .T. ) ;
#129 = ORIENTED_EDGE ( 'NONE', *, *, #92, .F. ) ;
#130 = DIRECTION ( 'NONE',  ( 0.000000000000000000, -1.000000000000000000, 0.000000000000000000 ) ) ;
#131 = CARTESIAN_POINT ( 'NONE',  ( 0.000000000000000000, 0.000000000000000000, 150.0000000000000000 ) ) ;
#132 = PLANE ( 'NONE',  #168 ) ;
#133 = DIRECTION ( 'NONE',  ( 0.000000000000000000, 1.000000000000000000, 0.000000000000000000 ) ) ;
#134 = DIRECTION ( 'NONE',  ( 1.000000000000000000, 0.000000000000000000, 0.000000000000000000 ) ) ;
#135 = COLOUR_RGB ( '',0.7921568627450980005, 0.8196078431372548767, 0.9333333333333333481 ) ;
#136 = AXIS2_PLACEMENT_3D ( 'NONE', #32, #71, #158 ) ;
#137 = EDGE_LOOP ( 'NONE', ( #129, #20, #40, #103 ) ) ;
#138 = DIRECTION ( 'NONE',  ( 0.000000000000000000, 0.000000000000000000, 1.000000000000000000 ) ) ;
#139 = CARTESIAN_POINT ( 'NONE',  ( 55.00000000000000000, 6.000000000000000000, -150.0000000000000000 ) ) ;
#140 = FACE_OUTER_BOUND ( 'NONE', #141, .T. ) ;
#141 = EDGE_LOOP ( 'NONE', ( #170, #3, #29, #126 ) ) ;
#142 = LINE ( 'NONE', #110, #186 ) ;
#143 = CARTESIAN_POINT ( 'NONE',  ( -55.00000000000000000, -6.000000000000000000, -150.0000000000000000 ) ) ;
#144 = EDGE_LOOP ( 'NONE', ( #155, #101, #43, #187 ) ) ;
#145 = DIRECTION ( 'NONE',  ( 0.000000000000000000, 0.000000000000000000, 1.000000000000000000 ) ) ;
#146 = VERTEX_POINT ( 'NONE', #12 ) ;
#147 =( NAMED_UNIT ( * ) PLANE_ANGLE_UNIT ( ) SI_UNIT ( $, .RADIAN. ) );
#148 = CARTESIAN_POINT ( 'NONE',  ( 0.000000000000000000, 0.000000000000000000, 0.000000000000000000 ) ) ;
#149 = CARTESIAN_POINT ( 'NONE',  ( -55.00000000000000000, -6.000000000000000000, -150.0000000000000000 ) ) ;
#150 = EDGE_CURVE ( 'NONE', #11, #66, #99, .T. ) ;
#151 = EDGE_CURVE ( 'NONE', #82, #11, #17, .T. ) ;
#152 = EDGE_CURVE ( 'NONE', #26, #82, #142, .T. ) ;
#153 = APPLICATION_CONTEXT ( 'automotive_design' ) ;
#154 = VECTOR ( 'NONE', #174, 1000.000000000000000 ) ;
#155 = ORIENTED_EDGE ( 'NONE', *, *, #107, .F. ) ;
#156 = SURFACE_STYLE_USAGE ( .BOTH. , #30 ) ;
#157 = CARTESIAN_POINT ( 'NONE',  ( 55.00000000000000000, 6.000000000000000000, -150.0000000000000000 ) ) ;
#158 = DIRECTION ( 'NONE',  ( 0.000000000000000000, 0.000000000000000000, 1.000000000000000000 ) ) ;
#159 = VERTEX_POINT ( 'NONE', #160 ) ;
#160 = CARTESIAN_POINT ( 'NONE',  ( 55.00000000000000000, 6.000000000000000000, 150.0000000000000000 ) ) ;
#161 = PLANE ( 'NONE',  #8 ) ;
#162 = ORIENTED_EDGE ( 'NONE', *, *, #64, .T. ) ;
#163 = DIRECTION ( 'NONE',  ( 0.000000000000000000, 0.000000000000000000, 1.000000000000000000 ) ) ;
#164 = CARTESIAN_POINT ( 'NONE',  ( -55.00000000000000000, 6.000000000000000000, -150.0000000000000000 ) ) ;
#165 = EDGE_CURVE ( 'NONE', #11, #16, #41, .T. ) ;
#166 = MANIFOLD_SOLID_BREP ( 'NONE', #23 ) ;
#167 = PRESENTATION_LAYER_ASSIGNMENT (  '', '', ( #94 ) ) ;
#168 = AXIS2_PLACEMENT_3D ( 'NONE', #4, #28, #14 ) ;
#169 = VECTOR ( 'NONE', #145, 1000.000000000000000 ) ;
#170 = ORIENTED_EDGE ( 'NONE', *, *, #150, .F. ) ;
#171 = DIRECTION ( 'NONE',  ( 1.000000000000000000, 0.000000000000000000, 0.000000000000000000 ) ) ;
#172 = EDGE_LOOP ( 'NONE', ( #109, #90, #119, #33 ) ) ;
#173 = CARTESIAN_POINT ( 'NONE',  ( -55.00000000000000000, -6.000000000000000000, -150.0000000000000000 ) ) ;
#174 = DIRECTION ( 'NONE',  ( -1.000000000000000000, 0.000000000000000000, 0.000000000000000000 ) ) ;
#175 = CARTESIAN_POINT ( 'NONE',  ( -55.00000000000000000, 6.000000000000000000, -150.0000000000000000 ) ) ;
#176 = CARTESIAN_POINT ( 'NONE',  ( 55.00000000000000000, 6.000000000000000000, -150.0000000000000000 ) ) ;
#177 = PRODUCT_CONTEXT ( 'NONE', #182, 'mechanical' ) ;
#178 = CARTESIAN_POINT ( 'NONE',  ( -55.00000000000000000, 6.000000000000000000, 150.0000000000000000 ) ) ;
#179 = DIRECTION ( 'NONE',  ( 1.000000000000000000, 0.000000000000000000, 0.000000000000000000 ) ) ;
#180 = LINE ( 'NONE', #149, #39 ) ;
#181 = VECTOR ( 'NONE', #138, 1000.000000000000000 ) ;
#182 = APPLICATION_CONTEXT ( 'automotive_design' ) ;
#183 = PRODUCT_DEFINITION_FORMATION_WITH_SPECIFIED_SOURCE ( 'ANY', '', #38, .NOT_KNOWN. ) ;
#184 = EDGE_CURVE ( 'NONE', #82, #56, #180, .T. ) ;
#185 = ORIENTED_EDGE ( 'NONE', *, *, #107, .T. ) ;
#186 = VECTOR ( 'NONE', #67, 1000.000000000000000 ) ;
#187 = ORIENTED_EDGE ( 'NONE', *, *, #49, .T. ) ;
ENDSEC;
END-ISO-10303-21;
