ISO-10303-21;
HEADER;
FILE_DESCRIPTION (( 'STEP AP214' ),
    '1' );
FILE_NAME ('2033038_KSTP1.stp',
    '2018-09-11T09:18:00',
    ( '' ),
    ( '' ),
    'SwSTEP 2.0',
    'SolidWorks 2018',
    '' );
FILE_SCHEMA (( 'AUTOMOTIVE_DESIGN' ));
ENDSEC;

DATA;
#1 = ORIENTED_EDGE ( 'NONE', *, *, #323, .T. ) ;
#2 = AXIS2_PLACEMENT_3D ( 'NONE', #125, #157, #239 ) ;
#3 = VERTEX_POINT ( 'NONE', #222 ) ;
#4 = VECTOR ( 'NONE', #22, 1000.000000000000000 ) ;
#5 = DIRECTION ( 'NONE',  ( 1.000000000000000000, -7.284826300225047977E-16, 0.0000000000000000000 ) ) ;
#6 = EDGE_LOOP ( 'NONE', ( #325, #64, #79, #254 ) ) ;
#7 = VERTEX_POINT ( 'NONE', #252 ) ;
#8 = AXIS2_PLACEMENT_3D ( 'NONE', #271, #28, #46 ) ;
#9 = VERTEX_POINT ( 'NONE', #85 ) ;
#10 = EDGE_CURVE ( 'NONE', #229, #3, #104, .T. ) ;
#11 = ORIENTED_EDGE ( 'NONE', *, *, #264, .F. ) ;
#12 = PRODUCT_DEFINITION_FORMATION_WITH_SPECIFIED_SOURCE ( 'ANY', '', #181, .NOT_KNOWN. ) ;
#13 = ORIENTED_EDGE ( 'NONE', *, *, #250, .T. ) ;
#14 = CIRCLE ( 'NONE', #260, 35.00000000000005684 ) ;
#15 =( NAMED_UNIT ( * ) PLANE_ANGLE_UNIT ( ) SI_UNIT ( $, .RADIAN. ) );
#16 =( GEOMETRIC_REPRESENTATION_CONTEXT ( 3 ) GLOBAL_UNCERTAINTY_ASSIGNED_CONTEXT ( ( #249 ) ) GLOBAL_UNIT_ASSIGNED_CONTEXT ( ( #343, #15, #200 ) ) REPRESENTATION_CONTEXT ( 'NONE', 'WORKASPACE' ) );
#17 = DIRECTION ( 'NONE',  ( -1.000000000000000000, 7.186711543332474560E-16, 0.0000000000000000000 ) ) ;
#18 = ORIENTED_EDGE ( 'NONE', *, *, #288, .F. ) ;
#19 = ORIENTED_EDGE ( 'NONE', *, *, #76, .T. ) ;
#20 = DIRECTION ( 'NONE',  ( 7.284826300225047977E-16, 1.000000000000000000, -0.0000000000000000000 ) ) ;
#21 = COLOUR_RGB ( '',0.7529411764705882248, 0.7529411764705882248, 0.7529411764705882248 ) ;
#22 = DIRECTION ( 'NONE',  ( 7.284826300225047977E-16, 1.000000000000000000, -0.0000000000000000000 ) ) ;
#23 = AXIS2_PLACEMENT_3D ( 'NONE', #98, #262, #68 ) ;
#24 = CARTESIAN_POINT ( 'NONE',  ( -35.00000000000001421, 4.500000000000029310, 0.0000000000000000000 ) ) ;
#25 = ORIENTED_EDGE ( 'NONE', *, *, #212, .F. ) ;
#26 = DIRECTION ( 'NONE',  ( 1.000000000000000000, -7.178166107490233465E-16, 0.0000000000000000000 ) ) ;
#27 = PRODUCT_DEFINITION_CONTEXT ( 'detailed design', #238, 'design' ) ;
#28 = DIRECTION ( 'NONE',  ( 7.284826300225047977E-16, 1.000000000000000000, -0.0000000000000000000 ) ) ;
#29 = PRODUCT_RELATED_PRODUCT_CATEGORY ( 'part', '', ( #181 ) ) ;
#30 = DIRECTION ( 'NONE',  ( -1.000000000000000000, 7.159176250063008679E-16, 0.0000000000000000000 ) ) ;
#31 = CONICAL_SURFACE ( 'NONE', #111, 29.00000000000001066, 0.03490658503988647299 ) ;
#32 = STYLED_ITEM ( 'NONE', ( #285 ), #294 ) ;
#33 = DIRECTION ( 'NONE',  ( -1.000000000000000000, 0.0000000000000000000, 0.0000000000000000000 ) ) ;
#34 = ORIENTED_EDGE ( 'NONE', *, *, #344, .F. ) ;
#35 = CIRCLE ( 'NONE', #149, 29.00000000000001066 ) ;
#36 = LINE ( 'NONE', #116, #4 ) ;
#37 = ORIENTED_EDGE ( 'NONE', *, *, #166, .T. ) ;
#38 = EDGE_CURVE ( 'NONE', #69, #186, #14, .T. ) ;
#39 = UNCERTAINTY_MEASURE_WITH_UNIT (LENGTH_MEASURE( 1.000000000000000082E-05 ), #211, 'distance_accuracy_value', 'NONE');
#40 = EDGE_CURVE ( 'NONE', #229, #193, #235, .T. ) ;
#41 = CARTESIAN_POINT ( 'NONE',  ( -35.00000000000002132, -1.000000000000000444, 0.0000000000000000000 ) ) ;
#42 = CARTESIAN_POINT ( 'NONE',  ( -31.49999999999998579, 4.500000000000026645, 0.0000000000000000000 ) ) ;
#43 = DIRECTION ( 'NONE',  ( -1.000000000000000000, 7.310620363045105047E-16, 0.0000000000000000000 ) ) ;
#44 = CONICAL_SURFACE ( 'NONE', #137, 29.00000000000001066, 0.03490658503988647299 ) ;
#45 = ORIENTED_EDGE ( 'NONE', *, *, #206, .F. ) ;
#46 = DIRECTION ( 'NONE',  ( -1.000000000000000000, 7.186711543332474560E-16, 0.0000000000000000000 ) ) ;
#47 = SURFACE_STYLE_USAGE ( .BOTH. , #324 ) ;
#48 =( GEOMETRIC_REPRESENTATION_CONTEXT ( 3 ) GLOBAL_UNCERTAINTY_ASSIGNED_CONTEXT ( ( #195 ) ) GLOBAL_UNIT_ASSIGNED_CONTEXT ( ( #321, #97, #207 ) ) REPRESENTATION_CONTEXT ( 'NONE', 'WORKASPACE' ) );
#49 = CARTESIAN_POINT ( 'NONE',  ( 3.448672909302506105E-14, -2.500000000000023093, 0.0000000000000000000 ) ) ;
#50 = DIRECTION ( 'NONE',  ( 7.284826300225047977E-16, 1.000000000000000000, -0.0000000000000000000 ) ) ;
#51 = ADVANCED_FACE ( 'NONE', ( #122 ), #310, .T. ) ;
#52 = FACE_BOUND ( 'NONE', #315, .T. ) ;
#53 = CARTESIAN_POINT ( 'NONE',  ( 2.574493753275500072E-14, -14.50000000000002309, 0.0000000000000000000 ) ) ;
#54 = FACE_OUTER_BOUND ( 'NONE', #259, .T. ) ;
#55 = DIRECTION ( 'NONE',  ( -1.000000000000000000, 7.290411295839509162E-16, 0.0000000000000000000 ) ) ;
#56 = CIRCLE ( 'NONE', #216, 31.50000000000002842 ) ;
#57 = EDGE_LOOP ( 'NONE', ( #92, #112 ) ) ;
#58 = CARTESIAN_POINT ( 'NONE',  ( 2.574493753275500703E-14, -14.50000000000001954, 0.0000000000000000000 ) ) ;
#59 = ORIENTED_EDGE ( 'NONE', *, *, #107, .F. ) ;
#60 = DIRECTION ( 'NONE',  ( 7.284826300225047977E-16, 1.000000000000000000, -0.0000000000000000000 ) ) ;
#61 = AXIS2_PLACEMENT_3D ( 'NONE', #220, #217, #55 ) ;
#62 = DIRECTION ( 'NONE',  ( 7.284826300225047977E-16, 1.000000000000000000, -0.0000000000000000000 ) ) ;
#63 = FACE_OUTER_BOUND ( 'NONE', #164, .T. ) ;
#64 = ORIENTED_EDGE ( 'NONE', *, *, #344, .T. ) ;
#65 = DIRECTION ( 'NONE',  ( 7.284826300225047977E-16, 1.000000000000000000, -0.0000000000000000000 ) ) ;
#66 = EDGE_LOOP ( 'NONE', ( #59, #75 ) ) ;
#67 = DIRECTION ( 'NONE',  ( 0.0000000000000000000, 0.0000000000000000000, 1.000000000000000000 ) ) ;
#68 = DIRECTION ( 'NONE',  ( -1.000000000000000000, 7.460264673718195304E-16, 0.0000000000000000000 ) ) ;
#69 = VERTEX_POINT ( 'NONE', #194 ) ;
#70 = ORIENTED_EDGE ( 'NONE', *, *, #327, .T. ) ;
#71 = SURFACE_SIDE_STYLE ('',( #228 ) ) ;
#72 = DIRECTION ( 'NONE',  ( 7.284826300225047977E-16, 1.000000000000000000, -0.0000000000000000000 ) ) ;
#73 = PRESENTATION_STYLE_ASSIGNMENT (( #123 ) ) ;
#74 = MECHANICAL_DESIGN_GEOMETRIC_PRESENTATION_REPRESENTATION (  '', ( #32 ), #126 ) ;
#75 = ORIENTED_EDGE ( 'NONE', *, *, #342, .F. ) ;
#76 = EDGE_CURVE ( 'NONE', #189, #3, #89, .T. ) ;
#77 = DIRECTION ( 'NONE',  ( -1.000000000000000000, 7.296852716410372599E-16, 0.0000000000000000000 ) ) ;
#78 = DIRECTION ( 'NONE',  ( -1.000000000000000000, 7.178166107490233465E-16, 0.0000000000000000000 ) ) ;
#79 = ORIENTED_EDGE ( 'NONE', *, *, #297, .T. ) ;
#80 = VERTEX_POINT ( 'NONE', #336 ) ;
#81 = LINE ( 'NONE', #277, #196 ) ;
#82 = DIRECTION ( 'NONE',  ( 0.0000000000000000000, 0.0000000000000000000, 1.000000000000000000 ) ) ;
#83 = ADVANCED_FACE ( 'NONE', ( #132 ), #44, .F. ) ;
#84 = FACE_OUTER_BOUND ( 'NONE', #340, .T. ) ;
#85 = CARTESIAN_POINT ( 'NONE',  ( 1.096839192912278452E-13, 4.500000000000003553, 0.0000000000000000000 ) ) ;
#86 = PRODUCT_DEFINITION ( 'UNKNOWN', '', #12, #27 ) ;
#87 = DIRECTION ( 'NONE',  ( -1.000000000000000000, 7.178166107490233465E-16, 0.0000000000000000000 ) ) ;
#88 = FACE_OUTER_BOUND ( 'NONE', #6, .T. ) ;
#89 = CIRCLE ( 'NONE', #286, 29.00000000000001066 ) ;
#90 = DIRECTION ( 'NONE',  ( 7.284826300225047977E-16, 1.000000000000000000, -0.0000000000000000000 ) ) ;
#91 = ORIENTED_EDGE ( 'NONE', *, *, #323, .F. ) ;
#92 = ORIENTED_EDGE ( 'NONE', *, *, #230, .T. ) ;
#93 = AXIS2_PLACEMENT_3D ( 'NONE', #320, #20, #17 ) ;
#94 = ORIENTED_EDGE ( 'NONE', *, *, #297, .F. ) ;
#95 = DIRECTION ( 'NONE',  ( -1.000000000000000000, 7.296852716410372599E-16, 0.0000000000000000000 ) ) ;
#96 = FACE_OUTER_BOUND ( 'NONE', #246, .T. ) ;
#97 =( NAMED_UNIT ( * ) PLANE_ANGLE_UNIT ( ) SI_UNIT ( $, .RADIAN. ) );
#98 = CARTESIAN_POINT ( 'NONE',  ( 3.354156232720368002E-14, -109.6136363636366866, 0.0000000000000000000 ) ) ;
#99 = APPLICATION_CONTEXT ( 'automotive_design' ) ;
#100 = VECTOR ( 'NONE', #50, 1000.000000000000000 ) ;
#101 = CARTESIAN_POINT ( 'NONE',  ( -28.55350798054608319, -1.714141442117194103, 0.0000000000000000000 ) ) ;
#102 = CARTESIAN_POINT ( 'NONE',  ( 3.505921340209722199E-14, -1.714141442117216751, 0.0000000000000000000 ) ) ;
#103 = SPHERICAL_SURFACE ( 'NONE', #248, 114.1136363636367008 ) ;
#104 = LINE ( 'NONE', #283, #352 ) ;
#105 = DIRECTION ( 'NONE',  ( 0.0000000000000000000, 0.0000000000000000000, 1.000000000000000000 ) ) ;
#106 = DIRECTION ( 'NONE',  ( 7.284826300225047977E-16, 1.000000000000000000, -0.0000000000000000000 ) ) ;
#107 = EDGE_CURVE ( 'NONE', #7, #80, #348, .T. ) ;
#108 = CARTESIAN_POINT ( 'NONE',  ( 2.574493753275500703E-14, -14.50000000000001954, 0.0000000000000000000 ) ) ;
#109 = CARTESIAN_POINT ( 'NONE',  ( -28.99999999999998934, -14.50000000000000000, 0.0000000000000000000 ) ) ;
#110 = CIRCLE ( 'NONE', #255, 35.00000000000004974 ) ;
#111 = AXIS2_PLACEMENT_3D ( 'NONE', #108, #127, #26 ) ;
#112 = ORIENTED_EDGE ( 'NONE', *, *, #281, .T. ) ;
#113 = CARTESIAN_POINT ( 'NONE',  ( 3.354156232720368002E-14, -109.6136363636366866, 0.0000000000000000000 ) ) ;
#114 = COLOUR_RGB ( '',0.7529411764705882248, 0.7529411764705882248, 0.7529411764705882248 ) ;
#115 = VERTEX_POINT ( 'NONE', #253 ) ;
#116 = CARTESIAN_POINT ( 'NONE',  ( 31.50000000000007105, 4.499999999999981348, 3.857637417314166633E-15 ) ) ;
#117 = FACE_BOUND ( 'NONE', #57, .T. ) ;
#118 = EDGE_CURVE ( 'NONE', #155, #193, #198, .T. ) ;
#119 = DIRECTION ( 'NONE',  ( -7.284826300225047977E-16, -1.000000000000000000, 0.0000000000000000000 ) ) ;
#120 = PRODUCT_CONTEXT ( 'NONE', #99, 'mechanical' ) ;
#121 = VECTOR ( 'NONE', #293, 1000.000000000000000 ) ;
#122 = FACE_OUTER_BOUND ( 'NONE', #261, .T. ) ;
#123 = SURFACE_STYLE_USAGE ( .BOTH. , #71 ) ;
#124 = ORIENTED_EDGE ( 'NONE', *, *, #107, .T. ) ;
#125 = CARTESIAN_POINT ( 'NONE',  ( 3.557945303805881741E-14, -1.000000000000025979, 0.0000000000000000000 ) ) ;
#126 =( GEOMETRIC_REPRESENTATION_CONTEXT ( 3 ) GLOBAL_UNCERTAINTY_ASSIGNED_CONTEXT ( ( #39 ) ) GLOBAL_UNIT_ASSIGNED_CONTEXT ( ( #211, #350, #243 ) ) REPRESENTATION_CONTEXT ( 'NONE', 'WORKASPACE' ) );
#127 = DIRECTION ( 'NONE',  ( -7.284826300225047977E-16, -1.000000000000000000, 0.0000000000000000000 ) ) ;
#128 = CARTESIAN_POINT ( 'NONE',  ( 2.574493753275500703E-14, -14.50000000000001954, 0.0000000000000000000 ) ) ;
#129 = AXIS2_PLACEMENT_3D ( 'NONE', #146, #119, #263 ) ;
#130 = DIRECTION ( 'NONE',  ( 0.03489949670250011571, -0.9993908270190956511, 0.0000000000000000000 ) ) ;
#131 = CIRCLE ( 'NONE', #291, 28.55350798054609740 ) ;
#132 = FACE_OUTER_BOUND ( 'NONE', #328, .T. ) ;
#133 = CARTESIAN_POINT ( 'NONE',  ( 35.00000000000009948, 4.499999999999978684, 4.286263797015743596E-15 ) ) ;
#134 = EDGE_LOOP ( 'NONE', ( #296, #162, #227, #91 ) ) ;
#135 = ORIENTED_EDGE ( 'NONE', *, *, #230, .F. ) ;
#136 = DIRECTION ( 'NONE',  ( -0.03489949670250157288, -0.9993908270190956511, 4.273955692857127163E-18 ) ) ;
#137 = AXIS2_PLACEMENT_3D ( 'NONE', #58, #169, #139 ) ;
#138 = CIRCLE ( 'NONE', #184, 35.00000000000004974 ) ;
#139 = DIRECTION ( 'NONE',  ( 1.000000000000000000, -7.178166107490233465E-16, 0.0000000000000000000 ) ) ;
#140 = FACE_OUTER_BOUND ( 'NONE', #269, .T. ) ;
#141 = CARTESIAN_POINT ( 'NONE',  ( 2.574493753275500703E-14, -14.50000000000001954, 0.0000000000000000000 ) ) ;
#142 = ORIENTED_EDGE ( 'NONE', *, *, #40, .T. ) ;
#143 = DIRECTION ( 'NONE',  ( -1.224646799147353207E-16, 8.921339210915059975E-32, 1.000000000000000000 ) ) ;
#144 = DIRECTION ( 'NONE',  ( -1.000000000000000000, 7.310620363045105047E-16, 0.0000000000000000000 ) ) ;
#145 = AXIS2_PLACEMENT_3D ( 'NONE', #308, #167, #33 ) ;
#146 = CARTESIAN_POINT ( 'NONE',  ( -31.49999999999999289, -2.500000000000001776, 0.0000000000000000000 ) ) ;
#147 = SHAPE_DEFINITION_REPRESENTATION ( #223, #153 ) ;
#148 = CIRCLE ( 'NONE', #330, 31.50000000000002842 ) ;
#149 = AXIS2_PLACEMENT_3D ( 'NONE', #128, #161, #78 ) ;
#150 = DIRECTION ( 'NONE',  ( -1.000000000000000000, 7.296825296281629125E-16, 0.0000000000000000000 ) ) ;
#151 = ORIENTED_EDGE ( 'NONE', *, *, #170, .F. ) ;
#152 = DIRECTION ( 'NONE',  ( -1.000000000000000000, 7.290411295839509162E-16, 0.0000000000000000000 ) ) ;
#153 = ADVANCED_BREP_SHAPE_REPRESENTATION ( '2033038_KSTP1', ( #294, #201 ), #16 ) ;
#154 = DIRECTION ( 'NONE',  ( 7.284826300225047977E-16, 1.000000000000000000, -0.0000000000000000000 ) ) ;
#155 = VERTEX_POINT ( 'NONE', #337 ) ;
#156 = ORIENTED_EDGE ( 'NONE', *, *, #76, .F. ) ;
#157 = DIRECTION ( 'NONE',  ( 7.284826300225047977E-16, 1.000000000000000000, -0.0000000000000000000 ) ) ;
#158 = FILL_AREA_STYLE ('',( #351 ) ) ;
#159 = ADVANCED_FACE ( 'NONE', ( #84 ), #225, .F. ) ;
#160 = ADVANCED_FACE ( 'NONE', ( #117, #63 ), #349, .T. ) ;
#161 = DIRECTION ( 'NONE',  ( 7.284826300225047977E-16, 1.000000000000000000, -0.0000000000000000000 ) ) ;
#162 = ORIENTED_EDGE ( 'NONE', *, *, #288, .T. ) ;
#163 = CARTESIAN_POINT ( 'NONE',  ( 35.00000000000008527, -2.500000000000051070, 4.286263797015743596E-15 ) ) ;
#164 = EDGE_LOOP ( 'NONE', ( #151, #34 ) ) ;
#165 = CARTESIAN_POINT ( 'NONE',  ( 3.354156232720368002E-14, -109.6136363636366866, 0.0000000000000000000 ) ) ;
#166 = EDGE_CURVE ( 'NONE', #186, #9, #273, .T. ) ;
#167 = DIRECTION ( 'NONE',  ( -0.0000000000000000000, 0.0000000000000000000, -1.000000000000000000 ) ) ;
#168 = CARTESIAN_POINT ( 'NONE',  ( 3.958610750318261387E-14, 4.500000000000003553, 0.0000000000000000000 ) ) ;
#169 = DIRECTION ( 'NONE',  ( -7.284826300225047977E-16, -1.000000000000000000, 0.0000000000000000000 ) ) ;
#170 = EDGE_CURVE ( 'NONE', #306, #333, #110, .T. ) ;
#171 = AXIS2_PLACEMENT_3D ( 'NONE', #224, #62, #311 ) ;
#172 = DIRECTION ( 'NONE',  ( 1.000000000000000000, 0.0000000000000000000, 1.224646799147353207E-16 ) ) ;
#173 = CARTESIAN_POINT ( 'NONE',  ( 0.0000000000000000000, 0.0000000000000000000, 0.0000000000000000000 ) ) ;
#174 = DIRECTION ( 'NONE',  ( 7.284826300225047977E-16, 1.000000000000000000, -0.0000000000000000000 ) ) ;
#175 = ORIENTED_EDGE ( 'NONE', *, *, #170, .T. ) ;
#176 = AXIS2_PLACEMENT_3D ( 'NONE', #179, #317, #204 ) ;
#177 = ORIENTED_EDGE ( 'NONE', *, *, #312, .F. ) ;
#178 = DIRECTION ( 'NONE',  ( 1.000000000000000000, 0.0000000000000000000, 1.224646799147353207E-16 ) ) ;
#179 = CARTESIAN_POINT ( 'NONE',  ( 3.354156232720368002E-14, -109.6136363636366866, 0.0000000000000000000 ) ) ;
#180 = DIRECTION ( 'NONE',  ( 7.284826300225047977E-16, 1.000000000000000000, -0.0000000000000000000 ) ) ;
#181 = PRODUCT ( '2033038_KSTP1', '2033038_KSTP1', '', ( #120 ) ) ;
#182 = SURFACE_STYLE_FILL_AREA ( #158 ) ;
#183 = ORIENTED_EDGE ( 'NONE', *, *, #38, .T. ) ;
#184 = AXIS2_PLACEMENT_3D ( 'NONE', #257, #174, #144 ) ;
#185 = ADVANCED_FACE ( 'NONE', ( #88 ), #301, .T. ) ;
#186 = VERTEX_POINT ( 'NONE', #41 ) ;
#187 = PRESENTATION_LAYER_ASSIGNMENT (  '', '', ( #221 ) ) ;
#188 = LINE ( 'NONE', #42, #121 ) ;
#189 = VERTEX_POINT ( 'NONE', #233 ) ;
#190 = ADVANCED_FACE ( 'NONE', ( #54 ), #203, .F. ) ;
#191 = DIRECTION ( 'NONE',  ( -1.000000000000000000, 7.159176250063006706E-16, 0.0000000000000000000 ) ) ;
#192 = AXIS2_PLACEMENT_3D ( 'NONE', #244, #72, #267 ) ;
#193 = VERTEX_POINT ( 'NONE', #232 ) ;
#194 = CARTESIAN_POINT ( 'NONE',  ( 35.00000000000009237, -1.000000000000051736, 4.286263797015743596E-15 ) ) ;
#195 = UNCERTAINTY_MEASURE_WITH_UNIT (LENGTH_MEASURE( 1.000000000000000082E-05 ), #321, 'distance_accuracy_value', 'NONE');
#196 = VECTOR ( 'NONE', #130, 1000.000000000000114 ) ;
#197 = FACE_OUTER_BOUND ( 'NONE', #258, .T. ) ;
#198 = CIRCLE ( 'NONE', #338, 111.6136363636366866 ) ;
#199 = ORIENTED_EDGE ( 'NONE', *, *, #166, .F. ) ;
#200 =( NAMED_UNIT ( * ) SI_UNIT ( $, .STERADIAN. ) SOLID_ANGLE_UNIT ( ) );
#201 = AXIS2_PLACEMENT_3D ( 'NONE', #173, #67, #209 ) ;
#202 = CARTESIAN_POINT ( 'NONE',  ( -31.49999999999999289, -2.500000000000000000, 0.0000000000000000000 ) ) ;
#203 = SPHERICAL_SURFACE ( 'NONE', #23, 111.6136363636366866 ) ;
#204 = DIRECTION ( 'NONE',  ( -1.000000000000000000, 0.0000000000000000000, 0.0000000000000000000 ) ) ;
#205 = ORIENTED_EDGE ( 'NONE', *, *, #118, .F. ) ;
#206 = EDGE_CURVE ( 'NONE', #69, #9, #218, .T. ) ;
#207 =( NAMED_UNIT ( * ) SI_UNIT ( $, .STERADIAN. ) SOLID_ANGLE_UNIT ( ) );
#208 = FACE_OUTER_BOUND ( 'NONE', #134, .T. ) ;
#209 = DIRECTION ( 'NONE',  ( 1.000000000000000000, 0.0000000000000000000, 0.0000000000000000000 ) ) ;
#210 = CARTESIAN_POINT ( 'NONE',  ( -35.00000000000001421, -2.500000000000000000, 0.0000000000000000000 ) ) ;
#211 =( LENGTH_UNIT ( ) NAMED_UNIT ( * ) SI_UNIT ( .MILLI., .METRE. ) );
#212 = EDGE_CURVE ( 'NONE', #7, #237, #188, .T. ) ;
#213 = ORIENTED_EDGE ( 'NONE', *, *, #118, .T. ) ;
#214 = ORIENTED_EDGE ( 'NONE', *, *, #264, .T. ) ;
#215 = LINE ( 'NONE', #133, #100 ) ;
#216 = AXIS2_PLACEMENT_3D ( 'NONE', #49, #275, #77 ) ;
#217 = DIRECTION ( 'NONE',  ( 7.284826300225047977E-16, 1.000000000000000000, -0.0000000000000000000 ) ) ;
#218 = CIRCLE ( 'NONE', #316, 114.1136363636367008 ) ;
#219 = ADVANCED_FACE ( 'NONE', ( #197 ), #339, .T. ) ;
#220 = CARTESIAN_POINT ( 'NONE',  ( 3.505921340209722199E-14, -1.714141442117216751, 0.0000000000000000000 ) ) ;
#221 = STYLED_ITEM ( 'NONE', ( #73 ), #153 ) ;
#222 = CARTESIAN_POINT ( 'NONE',  ( -28.99999999999998934, -14.49999999999999822, 3.551475717527325607E-15 ) ) ;
#223 = PRODUCT_DEFINITION_SHAPE ( 'NONE', 'NONE',  #86 ) ;
#224 = CARTESIAN_POINT ( 'NONE',  ( 2.574493753275500072E-14, -14.50000000000002309, 0.0000000000000000000 ) ) ;
#225 = SPHERICAL_SURFACE ( 'NONE', #303, 111.6136363636366866 ) ;
#226 = MECHANICAL_DESIGN_GEOMETRIC_PRESENTATION_REPRESENTATION (  '', ( #221 ), #48 ) ;
#227 = ORIENTED_EDGE ( 'NONE', *, *, #331, .T. ) ;
#228 = SURFACE_STYLE_FILL_AREA ( #347 ) ;
#229 = VERTEX_POINT ( 'NONE', #101 ) ;
#230 = EDGE_CURVE ( 'NONE', #237, #115, #148, .T. ) ;
#231 = CARTESIAN_POINT ( 'NONE',  ( 3.448672909302505474E-14, -2.500000000000025757, 0.0000000000000000000 ) ) ;
#232 = CARTESIAN_POINT ( 'NONE',  ( 1.080157935660649994E-13, 2.000000000000001776, 0.0000000000000000000 ) ) ;
#233 = CARTESIAN_POINT ( 'NONE',  ( 29.00000000000003553, -14.50000000000004086, 0.0000000000000000000 ) ) ;
#234 = APPLICATION_PROTOCOL_DEFINITION ( 'draft international standard', 'automotive_design', 1998, #99 ) ;
#235 = CIRCLE ( 'NONE', #145, 111.6136363636366866 ) ;
#236 = DIRECTION ( 'NONE',  ( 0.0000000000000000000, 0.0000000000000000000, 1.000000000000000000 ) ) ;
#237 = VERTEX_POINT ( 'NONE', #202 ) ;
#238 = APPLICATION_CONTEXT ( 'automotive_design' ) ;
#239 = DIRECTION ( 'NONE',  ( -1.000000000000000000, 7.310620363045104061E-16, 0.0000000000000000000 ) ) ;
#240 = FACE_OUTER_BOUND ( 'NONE', #289, .T. ) ;
#241 = ORIENTED_EDGE ( 'NONE', *, *, #312, .T. ) ;
#242 = ORIENTED_EDGE ( 'NONE', *, *, #206, .T. ) ;
#243 =( NAMED_UNIT ( * ) SI_UNIT ( $, .STERADIAN. ) SOLID_ANGLE_UNIT ( ) );
#244 = CARTESIAN_POINT ( 'NONE',  ( 3.958610750318261387E-14, 4.500000000000003553, 0.0000000000000000000 ) ) ;
#245 = FILL_AREA_STYLE_COLOUR ( '', #21 ) ;
#246 = EDGE_LOOP ( 'NONE', ( #11, #319, #251, #307 ) ) ;
#247 = VECTOR ( 'NONE', #106, 1000.000000000000000 ) ;
#248 = AXIS2_PLACEMENT_3D ( 'NONE', #298, #105, #295 ) ;
#249 = UNCERTAINTY_MEASURE_WITH_UNIT (LENGTH_MEASURE( 1.000000000000000082E-05 ), #343, 'distance_accuracy_value', 'NONE');
#250 = EDGE_CURVE ( 'NONE', #186, #69, #266, .T. ) ;
#251 = ORIENTED_EDGE ( 'NONE', *, *, #212, .T. ) ;
#252 = CARTESIAN_POINT ( 'NONE',  ( -31.49999999999999289, -14.50000000000000000, 0.0000000000000000000 ) ) ;
#253 = CARTESIAN_POINT ( 'NONE',  ( 31.50000000000006395, -2.500000000000046185, 3.857637417314167422E-15 ) ) ;
#254 = ORIENTED_EDGE ( 'NONE', *, *, #38, .F. ) ;
#255 = AXIS2_PLACEMENT_3D ( 'NONE', #231, #180, #43 ) ;
#256 = DIRECTION ( 'NONE',  ( -1.000000000000000000, 7.310620363045104061E-16, 0.0000000000000000000 ) ) ;
#257 = CARTESIAN_POINT ( 'NONE',  ( 3.448672909302505474E-14, -2.500000000000025757, 0.0000000000000000000 ) ) ;
#258 = EDGE_LOOP ( 'NONE', ( #45, #183, #37 ) ) ;
#259 = EDGE_LOOP ( 'NONE', ( #205, #18, #142 ) ) ;
#260 = AXIS2_PLACEMENT_3D ( 'NONE', #284, #335, #256 ) ;
#261 = EDGE_LOOP ( 'NONE', ( #124, #214, #135, #25 ) ) ;
#262 = DIRECTION ( 'NONE',  ( 0.0000000000000000000, 0.0000000000000000000, 1.000000000000000000 ) ) ;
#263 = DIRECTION ( 'NONE',  ( 1.000000000000000000, -7.284826300225047977E-16, 0.0000000000000000000 ) ) ;
#264 = EDGE_CURVE ( 'NONE', #80, #115, #36, .T. ) ;
#265 = CARTESIAN_POINT ( 'NONE',  ( 3.448672909302506105E-14, -2.500000000000023093, 0.0000000000000000000 ) ) ;
#266 = CIRCLE ( 'NONE', #2, 35.00000000000005684 ) ;
#267 = DIRECTION ( 'NONE',  ( -1.000000000000000000, 7.159176250063006706E-16, 0.0000000000000000000 ) ) ;
#268 = ORIENTED_EDGE ( 'NONE', *, *, #331, .F. ) ;
#269 = EDGE_LOOP ( 'NONE', ( #13, #242, #199 ) ) ;
#270 = AXIS2_PLACEMENT_3D ( 'NONE', #318, #236, #150 ) ;
#271 = CARTESIAN_POINT ( 'NONE',  ( 3.958610750318261387E-14, 4.500000000000003553, 0.0000000000000000000 ) ) ;
#272 = ADVANCED_FACE ( 'NONE', ( #140 ), #103, .T. ) ;
#273 = CIRCLE ( 'NONE', #176, 114.1136363636367008 ) ;
#274 = ADVANCED_FACE ( 'NONE', ( #208 ), #31, .F. ) ;
#275 = DIRECTION ( 'NONE',  ( 7.284826300225047977E-16, 1.000000000000000000, -0.0000000000000000000 ) ) ;
#276 = AXIS2_PLACEMENT_3D ( 'NONE', #109, #300, #5 ) ;
#277 = CARTESIAN_POINT ( 'NONE',  ( 29.00000000000003553, -14.50000000000004086, 0.0000000000000000000 ) ) ;
#278 = ADVANCED_FACE ( 'NONE', ( #240 ), #346, .T. ) ;
#279 = ADVANCED_FACE ( 'NONE', ( #96 ), #314, .T. ) ;
#280 = CIRCLE ( 'NONE', #61, 28.55350798054609740 ) ;
#281 = EDGE_CURVE ( 'NONE', #115, #237, #56, .T. ) ;
#282 = ORIENTED_EDGE ( 'NONE', *, *, #250, .F. ) ;
#283 = CARTESIAN_POINT ( 'NONE',  ( -28.99999999999998934, -14.49999999999999822, 3.551475717527325607E-15 ) ) ;
#284 = CARTESIAN_POINT ( 'NONE',  ( 3.557945303805881741E-14, -1.000000000000025979, 0.0000000000000000000 ) ) ;
#285 = PRESENTATION_STYLE_ASSIGNMENT (( #47 ) ) ;
#286 = AXIS2_PLACEMENT_3D ( 'NONE', #141, #60, #87 ) ;
#287 = LINE ( 'NONE', #24, #247 ) ;
#288 = EDGE_CURVE ( 'NONE', #229, #155, #131, .T. ) ;
#289 = EDGE_LOOP ( 'NONE', ( #175, #70, #282, #94 ) ) ;
#290 = CARTESIAN_POINT ( 'NONE',  ( 3.354156232720368002E-14, -109.6136363636366866, 0.0000000000000000000 ) ) ;
#291 = AXIS2_PLACEMENT_3D ( 'NONE', #102, #154, #152 ) ;
#292 = DIRECTION ( 'NONE',  ( -1.224646799147353207E-16, 8.921339210915059975E-32, 1.000000000000000000 ) ) ;
#293 = DIRECTION ( 'NONE',  ( 7.284826300225047977E-16, 1.000000000000000000, -0.0000000000000000000 ) ) ;
#294 = MANIFOLD_SOLID_BREP ( 'Revolve1', #341 ) ;
#295 = DIRECTION ( 'NONE',  ( -1.000000000000000000, 7.296825296281629125E-16, 0.0000000000000000000 ) ) ;
#296 = ORIENTED_EDGE ( 'NONE', *, *, #10, .F. ) ;
#297 = EDGE_CURVE ( 'NONE', #306, #186, #287, .T. ) ;
#298 = CARTESIAN_POINT ( 'NONE',  ( 3.354156232720368002E-14, -109.6136363636366866, 0.0000000000000000000 ) ) ;
#299 = FACE_OUTER_BOUND ( 'NONE', #66, .T. ) ;
#300 = DIRECTION ( 'NONE',  ( -7.284826300225047977E-16, -1.000000000000000000, 0.0000000000000000000 ) ) ;
#301 = CYLINDRICAL_SURFACE ( 'NONE', #93, 35.00000000000005684 ) ;
#302 = PLANE ( 'NONE',  #276 ) ;
#303 = AXIS2_PLACEMENT_3D ( 'NONE', #113, #82, #313 ) ;
#304 = CIRCLE ( 'NONE', #326, 31.50000000000002132 ) ;
#305 = PRESENTATION_LAYER_ASSIGNMENT (  '', '', ( #32 ) ) ;
#306 = VERTEX_POINT ( 'NONE', #210 ) ;
#307 = ORIENTED_EDGE ( 'NONE', *, *, #281, .F. ) ;
#308 = CARTESIAN_POINT ( 'NONE',  ( 3.354156232720368002E-14, -109.6136363636366866, 0.0000000000000000000 ) ) ;
#309 = AXIS2_PLACEMENT_3D ( 'NONE', #168, #90, #191 ) ;
#310 = CYLINDRICAL_SURFACE ( 'NONE', #309, 31.50000000000002842 ) ;
#311 = DIRECTION ( 'NONE',  ( -1.000000000000000000, 7.159176250063008679E-16, 0.0000000000000000000 ) ) ;
#312 = EDGE_CURVE ( 'NONE', #155, #229, #280, .T. ) ;
#313 = DIRECTION ( 'NONE',  ( -1.000000000000000000, 7.460264673718195304E-16, 0.0000000000000000000 ) ) ;
#314 = CYLINDRICAL_SURFACE ( 'NONE', #192, 31.50000000000002842 ) ;
#315 = EDGE_LOOP ( 'NONE', ( #19, #1 ) ) ;
#316 = AXIS2_PLACEMENT_3D ( 'NONE', #290, #292, #178 ) ;
#317 = DIRECTION ( 'NONE',  ( -0.0000000000000000000, 0.0000000000000000000, -1.000000000000000000 ) ) ;
#318 = CARTESIAN_POINT ( 'NONE',  ( 3.354156232720368002E-14, -109.6136363636366866, 0.0000000000000000000 ) ) ;
#319 = ORIENTED_EDGE ( 'NONE', *, *, #342, .T. ) ;
#320 = CARTESIAN_POINT ( 'NONE',  ( 3.958610750318261387E-14, 4.500000000000003553, 0.0000000000000000000 ) ) ;
#321 =( LENGTH_UNIT ( ) NAMED_UNIT ( * ) SI_UNIT ( .MILLI., .METRE. ) );
#322 = APPLICATION_PROTOCOL_DEFINITION ( 'draft international standard', 'automotive_design', 1998, #238 ) ;
#323 = EDGE_CURVE ( 'NONE', #3, #189, #35, .T. ) ;
#324 = SURFACE_SIDE_STYLE ('',( #182 ) ) ;
#325 = ORIENTED_EDGE ( 'NONE', *, *, #327, .F. ) ;
#326 = AXIS2_PLACEMENT_3D ( 'NONE', #53, #332, #30 ) ;
#327 = EDGE_CURVE ( 'NONE', #333, #69, #215, .T. ) ;
#328 = EDGE_LOOP ( 'NONE', ( #241, #345, #156, #268 ) ) ;
#329 = ADVANCED_FACE ( 'NONE', ( #52, #299 ), #302, .T. ) ;
#330 = AXIS2_PLACEMENT_3D ( 'NONE', #265, #65, #95 ) ;
#331 = EDGE_CURVE ( 'NONE', #155, #189, #81, .T. ) ;
#332 = DIRECTION ( 'NONE',  ( 7.284826300225047977E-16, 1.000000000000000000, -0.0000000000000000000 ) ) ;
#333 = VERTEX_POINT ( 'NONE', #163 ) ;
#334 = ORIENTED_EDGE ( 'NONE', *, *, #40, .F. ) ;
#335 = DIRECTION ( 'NONE',  ( 7.284826300225047977E-16, 1.000000000000000000, -0.0000000000000000000 ) ) ;
#336 = CARTESIAN_POINT ( 'NONE',  ( 31.50000000000004974, -14.50000000000004619, 3.857637417314165844E-15 ) ) ;
#337 = CARTESIAN_POINT ( 'NONE',  ( 28.55350798054623240, -1.714141442117235847, 3.496796215280421744E-15 ) ) ;
#338 = AXIS2_PLACEMENT_3D ( 'NONE', #165, #143, #172 ) ;
#339 = SPHERICAL_SURFACE ( 'NONE', #270, 114.1136363636367008 ) ;
#340 = EDGE_LOOP ( 'NONE', ( #177, #213, #334 ) ) ;
#341 = CLOSED_SHELL ( 'NONE', ( #83, #159, #272, #278, #51, #279, #160, #185, #219, #190, #274, #329 ) ) ;
#342 = EDGE_CURVE ( 'NONE', #80, #7, #304, .T. ) ;
#343 =( LENGTH_UNIT ( ) NAMED_UNIT ( * ) SI_UNIT ( .MILLI., .METRE. ) );
#344 = EDGE_CURVE ( 'NONE', #333, #306, #138, .T. ) ;
#345 = ORIENTED_EDGE ( 'NONE', *, *, #10, .T. ) ;
#346 = CYLINDRICAL_SURFACE ( 'NONE', #8, 35.00000000000005684 ) ;
#347 = FILL_AREA_STYLE ('',( #245 ) ) ;
#348 = CIRCLE ( 'NONE', #171, 31.50000000000002132 ) ;
#349 = PLANE ( 'NONE',  #129 ) ;
#350 =( NAMED_UNIT ( * ) PLANE_ANGLE_UNIT ( ) SI_UNIT ( $, .RADIAN. ) );
#351 = FILL_AREA_STYLE_COLOUR ( '', #114 ) ;
#352 = VECTOR ( 'NONE', #136, 1000.000000000000114 ) ;
ENDSEC;
END-ISO-10303-21;
