ISO-10303-21;
HEADER;
FILE_DESCRIPTION (( 'STEP AP214' ),
    '1' );
FILE_NAME ('1147110.STEP',
    '2026-03-11T09:39:42',
    ( '' ),
    ( '' ),
    'SwSTEP 2.0',
    'SolidWorks 2024',
    '' );
FILE_SCHEMA (( 'AUTOMOTIVE_DESIGN' ));
ENDSEC;

DATA;
#1 = DIRECTION ( 'NONE',  ( 1.000000000000000000, 0.000000000000000000, 0.000000000000000000 ) ) ;
#2 = DIRECTION ( 'NONE',  ( 0.000000000000000000, 0.000000000000000000, -1.000000000000000000 ) ) ;
#3 = EDGE_CURVE ( 'NONE', #69, #186, #212, .T. ) ;
#4 = DIRECTION ( 'NONE',  ( -0.000000000000000000, 0.000000000000000000, -1.000000000000000000 ) ) ;
#5 = DIRECTION ( 'NONE',  ( 0.000000000000000000, 1.000000000000000000, 0.000000000000000000 ) ) ;
#6 = ADVANCED_FACE ( 'NONE', ( #269, #26 ), #112, .F. ) ;
#7 = CARTESIAN_POINT ( 'NONE',  ( -8.000000000000000000, 2.168404344971008868E-16, 8.500000000000000000 ) ) ;
#8 = VERTEX_POINT ( 'NONE', #172 ) ;
#9 = AXIS2_PLACEMENT_3D ( 'NONE', #164, #380, #79 ) ;
#10 = FILL_AREA_STYLE_COLOUR ( '', #365 ) ;
#11 = CARTESIAN_POINT ( 'NONE',  ( 4.286263797015736595E-16, 0.000000000000000000, 3.500000000000000444 ) ) ;
#12 = ORIENTED_EDGE ( 'NONE', *, *, #86, .T. ) ;
#13 = DIRECTION ( 'NONE',  ( -0.000000000000000000, 0.000000000000000000, 1.000000000000000000 ) ) ;
#14 = EDGE_CURVE ( 'NONE', #251, #200, #386, .T. ) ;
#15 = AXIS2_PLACEMENT_3D ( 'NONE', #52, #82, #318 ) ;
#16 = CYLINDRICAL_SURFACE ( 'NONE', #9, 3.500000000000000000 ) ;
#17 = ORIENTED_EDGE ( 'NONE', *, *, #14, .F. ) ;
#18 = FACE_OUTER_BOUND ( 'NONE', #107, .T. ) ;
#19 = ORIENTED_EDGE ( 'NONE', *, *, #334, .F. ) ;
#20 = EDGE_CURVE ( 'NONE', #258, #321, #54, .T. ) ;
#21 = ORIENTED_EDGE ( 'NONE', *, *, #276, .T. ) ;
#22 =( GEOMETRIC_REPRESENTATION_CONTEXT ( 3 ) GLOBAL_UNCERTAINTY_ASSIGNED_CONTEXT ( ( #355 ) ) GLOBAL_UNIT_ASSIGNED_CONTEXT ( ( #346, #220, #124 ) ) REPRESENTATION_CONTEXT ( 'NONE', 'WORKASPACE' ) );
#23 = CARTESIAN_POINT ( 'NONE',  ( -8.000000000000000000, 2.168404344971008868E-16, 8.500000000000000000 ) ) ;
#24 = CARTESIAN_POINT ( 'NONE',  ( 17.50000949367015224, -2.998001100545419866E-06, 8.500053841278930378 ) ) ;
#25 = LINE ( 'NONE', #114, #74 ) ;
#26 = FACE_OUTER_BOUND ( 'NONE', #146, .T. ) ;
#27 = DIRECTION ( 'NONE',  ( 0.000000000000000000, -1.000000000000000000, 0.000000000000000000 ) ) ;
#28 = PRODUCT_RELATED_PRODUCT_CATEGORY ( 'part', '', ( #316 ) ) ;
#29 = ADVANCED_FACE ( 'NONE', ( #267 ), #234, .F. ) ;
#30 = AXIS2_PLACEMENT_3D ( 'NONE', #246, #241, #391 ) ;
#31 = CARTESIAN_POINT ( 'NONE',  ( -8.000000000000000000, 2.168404344971008868E-16, -8.500000000000000000 ) ) ;
#32 = CARTESIAN_POINT ( 'NONE',  ( 8.000000000000000000, 2.168404344971008868E-16, -8.500000000000000000 ) ) ;
#33 = CARTESIAN_POINT ( 'NONE',  ( 0.000000000000000000, 10.00000000000000000, 5.944591164848680122E-16 ) ) ;
#34 = DIRECTION ( 'NONE',  ( -0.000000000000000000, -1.000000000000000000, -0.000000000000000000 ) ) ;
#35 = AXIS2_PLACEMENT_3D ( 'NONE', #184, #372, #77 ) ;
#36 = DIRECTION ( 'NONE',  ( 0.000000000000000000, -0.000000000000000000, 1.000000000000000000 ) ) ;
#37 = ADVANCED_FACE ( 'NONE', ( #90 ), #298, .F. ) ;
#38 = SURFACE_STYLE_USAGE ( .BOTH. , #314 ) ;
#39 = ORIENTED_EDGE ( 'NONE', *, *, #310, .F. ) ;
#40 = EDGE_CURVE ( 'NONE', #260, #343, #92, .T. ) ;
#41 = EDGE_LOOP ( 'NONE', ( #83, #71 ) ) ;
#42 = PRESENTATION_LAYER_ASSIGNMENT (  '', '', ( #149 ) ) ;
#43 = CARTESIAN_POINT ( 'NONE',  ( -8.000000000000000000, 3.000000000000000000, 8.500000000000000000 ) ) ;
#44 = ORIENTED_EDGE ( 'NONE', *, *, #392, .F. ) ;
#45 = DIRECTION ( 'NONE',  ( -0.3011313679370973273, 0.9535826651341416937, 0.000000000000000000 ) ) ;
#46 = ORIENTED_EDGE ( 'NONE', *, *, #362, .F. ) ;
#47 = ORIENTED_EDGE ( 'NONE', *, *, #95, .T. ) ;
#48 = VECTOR ( 'NONE', #206, 1000.000000000000227 ) ;
#49 = PRODUCT_DEFINITION_FORMATION_WITH_SPECIFIED_SOURCE ( 'ANY', '', #316, .NOT_KNOWN. ) ;
#50 = CARTESIAN_POINT ( 'NONE',  ( 8.000000000000000000, 3.000000000000000000, 8.500000000000000000 ) ) ;
#51 = ORIENTED_EDGE ( 'NONE', *, *, #86, .F. ) ;
#52 = CARTESIAN_POINT ( 'NONE',  ( 8.000000000000000000, 2.168404344971008868E-16, 8.500000000000000000 ) ) ;
#53 = ORIENTED_EDGE ( 'NONE', *, *, #310, .T. ) ;
#54 = LINE ( 'NONE', #24, #141 ) ;
#55 = AXIS2_PLACEMENT_3D ( 'NONE', #60, #147, #151 ) ;
#56 = DIRECTION ( 'NONE',  ( -0.9848077530122079093, -9.762109305567119065E-17, 0.1736481776669313026 ) ) ;
#57 = VERTEX_POINT ( 'NONE', #301 ) ;
#58 = VERTEX_POINT ( 'NONE', #242 ) ;
#59 = PRODUCT_CONTEXT ( 'NONE', #125, 'mechanical' ) ;
#60 = CARTESIAN_POINT ( 'NONE',  ( 0.000000000000000000, 0.000000000000000000, -8.500000000000000000 ) ) ;
#61 = DIRECTION ( 'NONE',  ( -9.912705577010325549E-17, 1.000000000000000000, -0.000000000000000000 ) ) ;
#62 = EDGE_CURVE ( 'NONE', #371, #215, #205, .T. ) ;
#63 = CARTESIAN_POINT ( 'NONE',  ( 0.000000000000000000, 17.00000000000000000, -3.499999999999999556 ) ) ;
#64 = LINE ( 'NONE', #63, #127 ) ;
#65 = LINE ( 'NONE', #239, #271 ) ;
#66 = VECTOR ( 'NONE', #273, 1000.000000000000000 ) ;
#67 = VECTOR ( 'NONE', #235, 1000.000000000000000 ) ;
#68 = CARTESIAN_POINT ( 'NONE',  ( 17.50000000000000000, 10.00000000000000178, 8.500000000000000000 ) ) ;
#69 = VERTEX_POINT ( 'NONE', #208 ) ;
#70 = SURFACE_STYLE_FILL_AREA ( #370 ) ;
#71 = ORIENTED_EDGE ( 'NONE', *, *, #118, .F. ) ;
#72 = CARTESIAN_POINT ( 'NONE',  ( -8.000000000000000000, 3.000000000000000000, 8.500000000000000000 ) ) ;
#73 = ORIENTED_EDGE ( 'NONE', *, *, #276, .F. ) ;
#74 = VECTOR ( 'NONE', #233, 1000.000000000000000 ) ;
#75 =( GEOMETRIC_REPRESENTATION_CONTEXT ( 3 ) GLOBAL_UNCERTAINTY_ASSIGNED_CONTEXT ( ( #230 ) ) GLOBAL_UNIT_ASSIGNED_CONTEXT ( ( #109, #231, #139 ) ) REPRESENTATION_CONTEXT ( 'NONE', 'WORKASPACE' ) );
#76 = EDGE_CURVE ( 'NONE', #165, #343, #177, .T. ) ;
#77 = DIRECTION ( 'NONE',  ( 0.000000000000000000, 0.000000000000000000, -1.000000000000000000 ) ) ;
#78 = LINE ( 'NONE', #191, #142 ) ;
#79 = DIRECTION ( 'NONE',  ( 0.000000000000000000, 0.000000000000000000, -1.000000000000000000 ) ) ;
#80 = EDGE_CURVE ( 'NONE', #85, #260, #331, .T. ) ;
#81 = ORIENTED_EDGE ( 'NONE', *, *, #341, .F. ) ;
#82 = DIRECTION ( 'NONE',  ( -1.000000000000000000, 0.000000000000000000, 0.000000000000000000 ) ) ;
#83 = ORIENTED_EDGE ( 'NONE', *, *, #3, .F. ) ;
#84 = VERTEX_POINT ( 'NONE', #335 ) ;
#85 = VERTEX_POINT ( 'NONE', #297 ) ;
#86 = EDGE_CURVE ( 'NONE', #321, #57, #94, .T. ) ;
#87 = VECTOR ( 'NONE', #214, 1000.000000000000000 ) ;
#88 = ORIENTED_EDGE ( 'NONE', *, *, #334, .T. ) ;
#89 = CARTESIAN_POINT ( 'NONE',  ( 14.50244132795608287, -0.0009999999999992653654, -8.500000000000000000 ) ) ;
#90 = FACE_OUTER_BOUND ( 'NONE', #219, .T. ) ;
#91 = EDGE_CURVE ( 'NONE', #200, #85, #274, .T. ) ;
#92 = LINE ( 'NONE', #32, #66 ) ;
#93 = DIRECTION ( 'NONE',  ( 0.000000000000000000, -1.000000000000000000, 0.000000000000000000 ) ) ;
#94 = LINE ( 'NONE', #89, #237 ) ;
#95 = EDGE_CURVE ( 'NONE', #378, #84, #359, .T. ) ;
#96 = CARTESIAN_POINT ( 'NONE',  ( 8.000000000000000000, 2.168404344971008868E-16, -8.500000000000000000 ) ) ;
#97 = AXIS2_PLACEMENT_3D ( 'NONE', #303, #275, #4 ) ;
#98 = ORIENTED_EDGE ( 'NONE', *, *, #243, .T. ) ;
#99 = DIRECTION ( 'NONE',  ( -0.9535826651341416937, -0.3011313679370973273, 0.000000000000000000 ) ) ;
#100 = ORIENTED_EDGE ( 'NONE', *, *, #190, .T. ) ;
#101 = VECTOR ( 'NONE', #323, 1000.000000000000000 ) ;
#102 = LINE ( 'NONE', #312, #376 ) ;
#103 = ADVANCED_FACE ( 'NONE', ( #123 ), #300, .F. ) ;
#104 = CARTESIAN_POINT ( 'NONE',  ( 14.50244132795608465, 0.9465974753822894439, -8.500000000000000000 ) ) ;
#105 = DIRECTION ( 'NONE',  ( 0.000000000000000000, -0.000000000000000000, -1.000000000000000000 ) ) ;
#106 = DIRECTION ( 'NONE',  ( 1.000000000000000000, 0.000000000000000000, 0.000000000000000000 ) ) ;
#107 = EDGE_LOOP ( 'NONE', ( #291, #339, #256, #287 ) ) ;
#108 = VECTOR ( 'NONE', #168, 999.9999999999998863 ) ;
#109 =( LENGTH_UNIT ( ) NAMED_UNIT ( * ) SI_UNIT ( .MILLI., .METRE. ) );
#110 = ORIENTED_EDGE ( 'NONE', *, *, #173, .F. ) ;
#111 = DIRECTION ( 'NONE',  ( 0.9535826651341416937, -0.3011313679370973273, 0.000000000000000000 ) ) ;
#112 = PLANE ( 'NONE',  #249 ) ;
#113 = EDGE_CURVE ( 'NONE', #378, #69, #64, .T. ) ;
#114 = CARTESIAN_POINT ( 'NONE',  ( -14.50244132795607577, -0.001000000000002734812, 8.500000000000000000 ) ) ;
#115 = CARTESIAN_POINT ( 'NONE',  ( 17.50000000000000000, 10.00000000000000000, 8.500000000000000000 ) ) ;
#116 = VECTOR ( 'NONE', #5, 1000.000000000000000 ) ;
#117 = CARTESIAN_POINT ( 'NONE',  ( 8.000000000000000000, 3.000000000000000000, 8.500000000000000000 ) ) ;
#118 = EDGE_CURVE ( 'NONE', #186, #69, #180, .T. ) ;
#119 = FACE_OUTER_BOUND ( 'NONE', #196, .T. ) ;
#120 = LINE ( 'NONE', #122, #384 ) ;
#121 = VECTOR ( 'NONE', #197, 1000.000000000000000 ) ;
#122 = CARTESIAN_POINT ( 'NONE',  ( -17.50000000000000000, 10.00000000000000000, -8.500000000000000000 ) ) ;
#123 = FACE_OUTER_BOUND ( 'NONE', #352, .T. ) ;
#124 =( NAMED_UNIT ( * ) SI_UNIT ( $, .STERADIAN. ) SOLID_ANGLE_UNIT ( ) );
#125 = APPLICATION_CONTEXT ( 'automotive_design' ) ;
#126 = CARTESIAN_POINT ( 'NONE',  ( 8.000000000000000000, 2.168404344971008868E-16, 8.500000000000000000 ) ) ;
#127 = VECTOR ( 'NONE', #364, 1000.000000000000000 ) ;
#128 = EDGE_CURVE ( 'NONE', #328, #371, #120, .T. ) ;
#129 = ORIENTED_EDGE ( 'NONE', *, *, #362, .T. ) ;
#130 = LINE ( 'NONE', #126, #311 ) ;
#131 = ORIENTED_EDGE ( 'NONE', *, *, #247, .F. ) ;
#132 = DIRECTION ( 'NONE',  ( 0.000000000000000000, 1.000000000000000000, 0.000000000000000000 ) ) ;
#133 = ORIENTED_EDGE ( 'NONE', *, *, #379, .T. ) ;
#134 = EDGE_LOOP ( 'NONE', ( #182, #12, #100, #171 ) ) ;
#135 = PRODUCT_DEFINITION ( 'UNKNOWN', '', #49, #240 ) ;
#136 = ADVANCED_FACE ( 'NONE', ( #337 ), #179, .F. ) ;
#137 = LINE ( 'NONE', #261, #67 ) ;
#138 = ORIENTED_EDGE ( 'NONE', *, *, #247, .T. ) ;
#139 =( NAMED_UNIT ( * ) SI_UNIT ( $, .STERADIAN. ) SOLID_ANGLE_UNIT ( ) );
#140 = ORIENTED_EDGE ( 'NONE', *, *, #173, .T. ) ;
#141 = VECTOR ( 'NONE', #144, 1000.000000000000114 ) ;
#142 = VECTOR ( 'NONE', #356, 1000.000000000000000 ) ;
#143 = LINE ( 'NONE', #50, #294 ) ;
#144 = DIRECTION ( 'NONE',  ( -0.1733876835661139204, 0.05475400533666755637, -0.9833304175541246472 ) ) ;
#145 = CARTESIAN_POINT ( 'NONE',  ( -17.50000000000000000, 10.00000000000000000, -8.500000000000000000 ) ) ;
#146 = EDGE_LOOP ( 'NONE', ( #73, #354, #138, #358 ) ) ;
#147 = DIRECTION ( 'NONE',  ( -0.000000000000000000, 0.000000000000000000, 1.000000000000000000 ) ) ;
#148 = ADVANCED_FACE ( 'NONE', ( #336 ), #210, .F. ) ;
#149 = STYLED_ITEM ( 'NONE', ( #374 ), #254 ) ;
#150 = FACE_BOUND ( 'NONE', #41, .T. ) ;
#151 = DIRECTION ( 'NONE',  ( 1.000000000000000000, 0.000000000000000000, 0.000000000000000000 ) ) ;
#152 = DIRECTION ( 'NONE',  ( 0.000000000000000000, -1.000000000000000000, 0.000000000000000000 ) ) ;
#153 = AXIS2_PLACEMENT_3D ( 'NONE', #281, #13, #308 ) ;
#154 = CARTESIAN_POINT ( 'NONE',  ( 0.000000000000000000, 0.000000000000000000, 5.944591164848680122E-16 ) ) ;
#155 = DIRECTION ( 'NONE',  ( 0.1736481776669312749, -0.000000000000000000, 0.9848077530122079093 ) ) ;
#156 = PLANE ( 'NONE',  #153 ) ;
#157 = PLANE ( 'NONE',  #175 ) ;
#158 = VECTOR ( 'NONE', #225, 1000.000000000000000 ) ;
#159 = ORIENTED_EDGE ( 'NONE', *, *, #263, .T. ) ;
#160 = ORIENTED_EDGE ( 'NONE', *, *, #243, .F. ) ;
#161 = FACE_OUTER_BOUND ( 'NONE', #228, .T. ) ;
#162 = VERTEX_POINT ( 'NONE', #270 ) ;
#163 = ORIENTED_EDGE ( 'NONE', *, *, #95, .F. ) ;
#164 = CARTESIAN_POINT ( 'NONE',  ( 0.000000000000000000, 17.00000000000000000, 5.944591164848680122E-16 ) ) ;
#165 = VERTEX_POINT ( 'NONE', #117 ) ;
#166 = DIRECTION ( 'NONE',  ( 0.9535826651341416937, 0.3011313679370973273, 0.000000000000000000 ) ) ;
#167 = ORIENTED_EDGE ( 'NONE', *, *, #128, .T. ) ;
#168 = DIRECTION ( 'NONE',  ( 0.9535826651341416937, -0.3011313679370973273, 0.000000000000000000 ) ) ;
#169 = ORIENTED_EDGE ( 'NONE', *, *, #76, .T. ) ;
#170 = VECTOR ( 'NONE', #166, 999.9999999999998863 ) ;
#171 = ORIENTED_EDGE ( 'NONE', *, *, #238, .F. ) ;
#172 = CARTESIAN_POINT ( 'NONE',  ( 8.000000000000000000, 2.168404344971008868E-16, 8.500000000000000000 ) ) ;
#173 = EDGE_CURVE ( 'NONE', #215, #251, #65, .T. ) ;
#174 = DIRECTION ( 'NONE',  ( -0.1736481776669314692, 0.000000000000000000, -0.9848077530122079093 ) ) ;
#175 = AXIS2_PLACEMENT_3D ( 'NONE', #252, #45, #99 ) ;
#176 = DIRECTION ( 'NONE',  ( 0.000000000000000000, 0.000000000000000000, -1.000000000000000000 ) ) ;
#177 = LINE ( 'NONE', #272, #280 ) ;
#178 = ADVANCED_FACE ( 'NONE', ( #150, #119 ), #188, .F. ) ;
#179 = PLANE ( 'NONE',  #286 ) ;
#180 = CIRCLE ( 'NONE', #244, 3.500000000000000000 ) ;
#181 = CARTESIAN_POINT ( 'NONE',  ( 17.50000000000000000, 2.168404344971008868E-16, 8.500000000000000000 ) ) ;
#182 = ORIENTED_EDGE ( 'NONE', *, *, #20, .T. ) ;
#183 = ADVANCED_FACE ( 'NONE', ( #257 ), #156, .T. ) ;
#184 = CARTESIAN_POINT ( 'NONE',  ( 0.000000000000000000, 10.00000000000000000, 5.944591164848680122E-16 ) ) ;
#185 = CARTESIAN_POINT ( 'NONE',  ( -17.50000000000000000, 9.999999999999998224, -8.500000000000000000 ) ) ;
#186 = VERTEX_POINT ( 'NONE', #11 ) ;
#187 = EDGE_CURVE ( 'NONE', #162, #328, #305, .T. ) ;
#188 = PLANE ( 'NONE',  #229 ) ;
#189 = ORIENTED_EDGE ( 'NONE', *, *, #80, .T. ) ;
#190 = EDGE_CURVE ( 'NONE', #57, #58, #283, .T. ) ;
#191 = CARTESIAN_POINT ( 'NONE',  ( 8.000000000000000000, 2.168404344971008868E-16, 8.500000000000000000 ) ) ;
#192 = ORIENTED_EDGE ( 'NONE', *, *, #91, .T. ) ;
#193 = LINE ( 'NONE', #23, #158 ) ;
#194 = ORIENTED_EDGE ( 'NONE', *, *, #118, .T. ) ;
#195 = DIRECTION ( 'NONE',  ( 0.1736481776669313026, 0.000000000000000000, 0.9848077530122079093 ) ) ;
#196 = EDGE_LOOP ( 'NONE', ( #189, #44, #325, #222 ) ) ;
#197 = DIRECTION ( 'NONE',  ( -0.000000000000000000, -1.000000000000000000, -0.000000000000000000 ) ) ;
#198 = EDGE_LOOP ( 'NONE', ( #39, #140, #98, #133, #388, #88, #313, #21 ) ) ;
#199 = LINE ( 'NONE', #292, #108 ) ;
#200 = VERTEX_POINT ( 'NONE', #277 ) ;
#201 = CIRCLE ( 'NONE', #35, 3.500000000000000000 ) ;
#202 = APPLICATION_PROTOCOL_DEFINITION ( 'draft international standard', 'automotive_design', 1998, #349 ) ;
#203 = ORIENTED_EDGE ( 'NONE', *, *, #80, .F. ) ;
#204 = ADVANCED_BREP_SHAPE_REPRESENTATION ( '1147110', ( #254, #327 ), #75 ) ;
#205 = LINE ( 'NONE', #329, #48 ) ;
#206 = DIRECTION ( 'NONE',  ( 0.1733876835661140869, 0.05475400533666761188, 0.9833304175541246472 ) ) ;
#207 = VECTOR ( 'NONE', #218, 1000.000000000000114 ) ;
#208 = CARTESIAN_POINT ( 'NONE',  ( 0.000000000000000000, 0.000000000000000000, -3.499999999999999556 ) ) ;
#209 = DIRECTION ( 'NONE',  ( 0.9848077530122079093, 9.762109305567119065E-17, -0.1736481776669314692 ) ) ;
#210 = PLANE ( 'NONE',  #97 ) ;
#211 = CLOSED_SHELL ( 'NONE', ( #29, #148, #178, #333, #37, #6, #288, #183, #103, #136, #360, #306 ) ) ;
#212 = CIRCLE ( 'NONE', #265, 3.500000000000000000 ) ;
#213 = EDGE_CURVE ( 'NONE', #8, #165, #130, .T. ) ;
#214 = DIRECTION ( 'NONE',  ( -1.000000000000000000, 0.000000000000000000, 0.000000000000000000 ) ) ;
#215 = VERTEX_POINT ( 'NONE', #342 ) ;
#216 = ORIENTED_EDGE ( 'NONE', *, *, #263, .F. ) ;
#217 = PRODUCT_DEFINITION_SHAPE ( 'NONE', 'NONE',  #135 ) ;
#218 = DIRECTION ( 'NONE',  ( -0.1736481776669314692, -0.000000000000000000, -0.9848077530122079093 ) ) ;
#219 = EDGE_LOOP ( 'NONE', ( #375, #226, #19, #169 ) ) ;
#220 =( NAMED_UNIT ( * ) PLANE_ANGLE_UNIT ( ) SI_UNIT ( $, .RADIAN. ) );
#221 = VECTOR ( 'NONE', #1, 1000.000000000000000 ) ;
#222 = ORIENTED_EDGE ( 'NONE', *, *, #330, .T. ) ;
#223 = DIRECTION ( 'NONE',  ( -1.000000000000000000, 0.000000000000000000, 0.000000000000000000 ) ) ;
#224 = EDGE_LOOP ( 'NONE', ( #192, #290, #160, #282 ) ) ;
#225 = DIRECTION ( 'NONE',  ( -0.000000000000000000, -0.000000000000000000, -1.000000000000000000 ) ) ;
#226 = ORIENTED_EDGE ( 'NONE', *, *, #20, .F. ) ;
#227 = FACE_OUTER_BOUND ( 'NONE', #134, .T. ) ;
#228 = EDGE_LOOP ( 'NONE', ( #81, #163, #253, #340 ) ) ;
#229 = AXIS2_PLACEMENT_3D ( 'NONE', #7, #132, #36 ) ;
#230 = UNCERTAINTY_MEASURE_WITH_UNIT (LENGTH_MEASURE( 1.000000000000000082E-05 ), #109, 'distance_accuracy_value', 'NONE');
#231 =( NAMED_UNIT ( * ) PLANE_ANGLE_UNIT ( ) SI_UNIT ( $, .RADIAN. ) );
#232 = CARTESIAN_POINT ( 'NONE',  ( -8.000000000000000000, 3.000000000000000000, 8.500000000000000000 ) ) ;
#233 = DIRECTION ( 'NONE',  ( -9.912705577010325549E-17, 1.000000000000000000, -0.000000000000000000 ) ) ;
#234 = CYLINDRICAL_SURFACE ( 'NONE', #299, 3.500000000000000000 ) ;
#235 = DIRECTION ( 'NONE',  ( 1.000000000000000000, 0.000000000000000000, 0.000000000000000000 ) ) ;
#236 = ORIENTED_EDGE ( 'NONE', *, *, #324, .F. ) ;
#237 = VECTOR ( 'NONE', #61, 1000.000000000000000 ) ;
#238 = EDGE_CURVE ( 'NONE', #258, #58, #377, .T. ) ;
#239 = CARTESIAN_POINT ( 'NONE',  ( -17.50000000000000000, 2.168404344971008868E-16, 8.500000000000000000 ) ) ;
#240 = PRODUCT_DEFINITION_CONTEXT ( 'detailed design', #349, 'design' ) ;
#241 = DIRECTION ( 'NONE',  ( 0.3011313679370973273, 0.9535826651341416937, -0.000000000000000000 ) ) ;
#242 = CARTESIAN_POINT ( 'NONE',  ( 17.50000000000000000, 10.00000000000000178, 8.500000000000000000 ) ) ;
#243 = EDGE_CURVE ( 'NONE', #251, #373, #307, .T. ) ;
#244 = AXIS2_PLACEMENT_3D ( 'NONE', #154, #152, #2 ) ;
#245 = DIRECTION ( 'NONE',  ( 0.000000000000000000, -1.000000000000000000, 0.000000000000000000 ) ) ;
#246 = CARTESIAN_POINT ( 'NONE',  ( 8.000000000000000000, 3.000000000000000000, 8.500000000000000000 ) ) ;
#247 = EDGE_CURVE ( 'NONE', #57, #328, #102, .T. ) ;
#248 = EDGE_LOOP ( 'NONE', ( #216, #319, #194, #309 ) ) ;
#249 = AXIS2_PLACEMENT_3D ( 'NONE', #115, #390, #105 ) ;
#250 = CARTESIAN_POINT ( 'NONE',  ( 17.50000000000000000, 2.168404344971008868E-16, 8.500000000000000000 ) ) ;
#251 = VERTEX_POINT ( 'NONE', #43 ) ;
#252 = CARTESIAN_POINT ( 'NONE',  ( -17.50000000000000000, 2.168404344971008868E-16, 8.500000000000000000 ) ) ;
#253 = ORIENTED_EDGE ( 'NONE', *, *, #113, .T. ) ;
#254 = MANIFOLD_SOLID_BREP ( 'Bohrung', #211 ) ;
#255 = DIRECTION ( 'NONE',  ( 0.000000000000000000, 1.000000000000000000, 0.000000000000000000 ) ) ;
#256 = ORIENTED_EDGE ( 'NONE', *, *, #213, .F. ) ;
#257 = FACE_OUTER_BOUND ( 'NONE', #198, .T. ) ;
#258 = VERTEX_POINT ( 'NONE', #181 ) ;
#259 = APPLICATION_PROTOCOL_DEFINITION ( 'draft international standard', 'automotive_design', 1998, #125 ) ;
#260 = VERTEX_POINT ( 'NONE', #96 ) ;
#261 = CARTESIAN_POINT ( 'NONE',  ( -8.000000000000000000, 2.168404344971008868E-16, 8.500000000000000000 ) ) ;
#262 = ORIENTED_EDGE ( 'NONE', *, *, #40, .F. ) ;
#263 = EDGE_CURVE ( 'NONE', #84, #378, #201, .T. ) ;
#264 = DIRECTION ( 'NONE',  ( 0.000000000000000000, -1.000000000000000000, 0.000000000000000000 ) ) ;
#265 = AXIS2_PLACEMENT_3D ( 'NONE', #293, #264, #296 ) ;
#266 = LINE ( 'NONE', #353, #170 ) ;
#267 = FACE_OUTER_BOUND ( 'NONE', #248, .T. ) ;
#268 = CARTESIAN_POINT ( 'NONE',  ( 4.286263797015736595E-16, 17.00000000000000000, 3.500000000000000444 ) ) ;
#269 = FACE_BOUND ( 'NONE', #381, .T. ) ;
#270 = CARTESIAN_POINT ( 'NONE',  ( -14.50244132795607754, 9.999999999999998224, 8.500000000000000000 ) ) ;
#271 = VECTOR ( 'NONE', #361, 999.9999999999998863 ) ;
#272 = CARTESIAN_POINT ( 'NONE',  ( 8.000000000000000000, 3.000000000000000000, 8.500000000000000000 ) ) ;
#273 = DIRECTION ( 'NONE',  ( 0.000000000000000000, 1.000000000000000000, 0.000000000000000000 ) ) ;
#274 = LINE ( 'NONE', #393, #304 ) ;
#275 = DIRECTION ( 'NONE',  ( 1.000000000000000000, 0.000000000000000000, -0.000000000000000000 ) ) ;
#276 = EDGE_CURVE ( 'NONE', #58, #162, #278, .T. ) ;
#277 = CARTESIAN_POINT ( 'NONE',  ( -8.000000000000000000, 3.000000000000000000, -8.500000000000000000 ) ) ;
#278 = LINE ( 'NONE', #345, #87 ) ;
#279 = ORIENTED_EDGE ( 'NONE', *, *, #62, .T. ) ;
#280 = VECTOR ( 'NONE', #367, 1000.000000000000000 ) ;
#281 = CARTESIAN_POINT ( 'NONE',  ( 0.000000000000000000, 0.000000000000000000, 8.500000000000000000 ) ) ;
#282 = ORIENTED_EDGE ( 'NONE', *, *, #14, .T. ) ;
#283 = LINE ( 'NONE', #68, #332 ) ;
#284 = ORIENTED_EDGE ( 'NONE', *, *, #62, .F. ) ;
#285 = DIRECTION ( 'NONE',  ( 0.000000000000000000, -1.000000000000000000, 0.000000000000000000 ) ) ;
#286 = AXIS2_PLACEMENT_3D ( 'NONE', #366, #209, #174 ) ;
#287 = ORIENTED_EDGE ( 'NONE', *, *, #392, .T. ) ;
#288 = ADVANCED_FACE ( 'NONE', ( #338 ), #157, .F. ) ;
#289 = CARTESIAN_POINT ( 'NONE',  ( 8.000000000000000000, 3.000000000000000000, -8.500000000000000000 ) ) ;
#290 = ORIENTED_EDGE ( 'NONE', *, *, #330, .F. ) ;
#291 = ORIENTED_EDGE ( 'NONE', *, *, #40, .T. ) ;
#292 = CARTESIAN_POINT ( 'NONE',  ( 8.000000000000000000, 3.000000000000000000, -8.500000000000000000 ) ) ;
#293 = CARTESIAN_POINT ( 'NONE',  ( 0.000000000000000000, 0.000000000000000000, 5.944591164848680122E-16 ) ) ;
#294 = VECTOR ( 'NONE', #111, 999.9999999999998863 ) ;
#295 = CARTESIAN_POINT ( 'NONE',  ( 0.000000000000000000, 0.000000000000000000, 0.000000000000000000 ) ) ;
#296 = DIRECTION ( 'NONE',  ( 0.000000000000000000, 0.000000000000000000, -1.000000000000000000 ) ) ;
#297 = CARTESIAN_POINT ( 'NONE',  ( -8.000000000000000000, 2.168404344971008868E-16, -8.500000000000000000 ) ) ;
#298 = PLANE ( 'NONE',  #30 ) ;
#299 = AXIS2_PLACEMENT_3D ( 'NONE', #357, #34, #363 ) ;
#300 = PLANE ( 'NONE',  #55 ) ;
#301 = CARTESIAN_POINT ( 'NONE',  ( 14.50244132795608110, 10.00000000000000178, -8.500000000000000000 ) ) ;
#302 = SHAPE_DEFINITION_REPRESENTATION ( #217, #204 ) ;
#303 = CARTESIAN_POINT ( 'NONE',  ( -8.000000000000000000, 3.000000000000000000, 8.500000000000000000 ) ) ;
#304 = VECTOR ( 'NONE', #27, 1000.000000000000000 ) ;
#305 = LINE ( 'NONE', #185, #207 ) ;
#306 = ADVANCED_FACE ( 'NONE', ( #161 ), #16, .F. ) ;
#307 = LINE ( 'NONE', #72, #350 ) ;
#308 = DIRECTION ( 'NONE',  ( 1.000000000000000000, 0.000000000000000000, 0.000000000000000000 ) ) ;
#309 = ORIENTED_EDGE ( 'NONE', *, *, #113, .F. ) ;
#310 = EDGE_CURVE ( 'NONE', #215, #162, #25, .T. ) ;
#311 = VECTOR ( 'NONE', #255, 1000.000000000000000 ) ;
#312 = CARTESIAN_POINT ( 'NONE',  ( 17.50000000000000000, 10.00000000000000000, -8.500000000000000000 ) ) ;
#313 = ORIENTED_EDGE ( 'NONE', *, *, #238, .T. ) ;
#314 = SURFACE_SIDE_STYLE ('',( #70 ) ) ;
#315 = ORIENTED_EDGE ( 'NONE', *, *, #128, .F. ) ;
#316 = PRODUCT ( '1147110', '1147110', '', ( #59 ) ) ;
#317 = EDGE_LOOP ( 'NONE', ( #110, #284, #129, #17 ) ) ;
#318 = DIRECTION ( 'NONE',  ( 0.000000000000000000, 0.000000000000000000, 1.000000000000000000 ) ) ;
#319 = ORIENTED_EDGE ( 'NONE', *, *, #341, .T. ) ;
#320 = CARTESIAN_POINT ( 'NONE',  ( 0.000000000000000000, 10.00000000000000000, -3.499999999999999556 ) ) ;
#321 = VERTEX_POINT ( 'NONE', #104 ) ;
#322 = PLANE ( 'NONE',  #344 ) ;
#323 = DIRECTION ( 'NONE',  ( -0.000000000000000000, -0.000000000000000000, -1.000000000000000000 ) ) ;
#324 = EDGE_CURVE ( 'NONE', #343, #321, #199, .T. ) ;
#325 = ORIENTED_EDGE ( 'NONE', *, *, #379, .F. ) ;
#326 = AXIS2_PLACEMENT_3D ( 'NONE', #33, #93, #176 ) ;
#327 = AXIS2_PLACEMENT_3D ( 'NONE', #295, #382, #106 ) ;
#328 = VERTEX_POINT ( 'NONE', #145 ) ;
#329 = CARTESIAN_POINT ( 'NONE',  ( -17.50000949367015224, -2.998001100200042181E-06, -8.500053841278930378 ) ) ;
#330 = EDGE_CURVE ( 'NONE', #373, #85, #193, .T. ) ;
#331 = LINE ( 'NONE', #31, #221 ) ;
#332 = VECTOR ( 'NONE', #155, 1000.000000000000114 ) ;
#333 = ADVANCED_FACE ( 'NONE', ( #18 ), #351, .F. ) ;
#334 = EDGE_CURVE ( 'NONE', #165, #258, #143, .T. ) ;
#335 = CARTESIAN_POINT ( 'NONE',  ( 4.286263797015736595E-16, 10.00000000000000000, 3.500000000000000444 ) ) ;
#336 = FACE_OUTER_BOUND ( 'NONE', #224, .T. ) ;
#337 = FACE_OUTER_BOUND ( 'NONE', #348, .T. ) ;
#338 = FACE_OUTER_BOUND ( 'NONE', #317, .T. ) ;
#339 = ORIENTED_EDGE ( 'NONE', *, *, #76, .F. ) ;
#340 = ORIENTED_EDGE ( 'NONE', *, *, #3, .T. ) ;
#341 = EDGE_CURVE ( 'NONE', #84, #186, #385, .T. ) ;
#342 = CARTESIAN_POINT ( 'NONE',  ( -14.50244132795607754, 0.9465974753822919974, 8.500000000000000000 ) ) ;
#343 = VERTEX_POINT ( 'NONE', #289 ) ;
#344 = AXIS2_PLACEMENT_3D ( 'NONE', #347, #56, #195 ) ;
#345 = CARTESIAN_POINT ( 'NONE',  ( 17.50000000000000000, 10.00000000000000000, 8.500000000000000000 ) ) ;
#346 =( LENGTH_UNIT ( ) NAMED_UNIT ( * ) SI_UNIT ( .MILLI., .METRE. ) );
#347 = CARTESIAN_POINT ( 'NONE',  ( 17.50000000000000000, -0.0009999999999992653654, 8.500000000000000000 ) ) ;
#348 = EDGE_LOOP ( 'NONE', ( #279, #53, #368, #167 ) ) ;
#349 = APPLICATION_CONTEXT ( 'automotive_design' ) ;
#350 = VECTOR ( 'NONE', #285, 1000.000000000000000 ) ;
#351 = PLANE ( 'NONE',  #15 ) ;
#352 = EDGE_LOOP ( 'NONE', ( #131, #51, #236, #262, #203, #383, #46, #315 ) ) ;
#353 = CARTESIAN_POINT ( 'NONE',  ( -17.50000000000000000, 2.168404344971008868E-16, -8.500000000000000000 ) ) ;
#354 = ORIENTED_EDGE ( 'NONE', *, *, #190, .F. ) ;
#355 = UNCERTAINTY_MEASURE_WITH_UNIT (LENGTH_MEASURE( 1.000000000000000082E-05 ), #346, 'distance_accuracy_value', 'NONE');
#356 = DIRECTION ( 'NONE',  ( -0.000000000000000000, -0.000000000000000000, -1.000000000000000000 ) ) ;
#357 = CARTESIAN_POINT ( 'NONE',  ( 0.000000000000000000, 17.00000000000000000, 5.944591164848680122E-16 ) ) ;
#358 = ORIENTED_EDGE ( 'NONE', *, *, #187, .F. ) ;
#359 = CIRCLE ( 'NONE', #326, 3.500000000000000000 ) ;
#360 = ADVANCED_FACE ( 'NONE', ( #227 ), #322, .F. ) ;
#361 = DIRECTION ( 'NONE',  ( 0.9535826651341416937, 0.3011313679370973273, 0.000000000000000000 ) ) ;
#362 = EDGE_CURVE ( 'NONE', #371, #200, #266, .T. ) ;
#363 = DIRECTION ( 'NONE',  ( 0.000000000000000000, 0.000000000000000000, -1.000000000000000000 ) ) ;
#364 = DIRECTION ( 'NONE',  ( -0.000000000000000000, -1.000000000000000000, -0.000000000000000000 ) ) ;
#365 = COLOUR_RGB ( '',0.7921568627450980005, 0.8196078431372548767, 0.9333333333333333481 ) ;
#366 = CARTESIAN_POINT ( 'NONE',  ( -17.50000000000000000, -0.001000000000002734812, -8.500000000000000000 ) ) ;
#367 = DIRECTION ( 'NONE',  ( -0.000000000000000000, -0.000000000000000000, -1.000000000000000000 ) ) ;
#368 = ORIENTED_EDGE ( 'NONE', *, *, #187, .T. ) ;
#369 = MECHANICAL_DESIGN_GEOMETRIC_PRESENTATION_REPRESENTATION (  '', ( #149 ), #22 ) ;
#370 = FILL_AREA_STYLE ('',( #10 ) ) ;
#371 = VERTEX_POINT ( 'NONE', #389 ) ;
#372 = DIRECTION ( 'NONE',  ( 0.000000000000000000, -1.000000000000000000, 0.000000000000000000 ) ) ;
#373 = VERTEX_POINT ( 'NONE', #387 ) ;
#374 = PRESENTATION_STYLE_ASSIGNMENT (( #38 ) ) ;
#375 = ORIENTED_EDGE ( 'NONE', *, *, #324, .T. ) ;
#376 = VECTOR ( 'NONE', #223, 1000.000000000000000 ) ;
#377 = LINE ( 'NONE', #250, #116 ) ;
#378 = VERTEX_POINT ( 'NONE', #320 ) ;
#379 = EDGE_CURVE ( 'NONE', #373, #8, #137, .T. ) ;
#380 = DIRECTION ( 'NONE',  ( -0.000000000000000000, -1.000000000000000000, -0.000000000000000000 ) ) ;
#381 = EDGE_LOOP ( 'NONE', ( #47, #159 ) ) ;
#382 = DIRECTION ( 'NONE',  ( 0.000000000000000000, 0.000000000000000000, 1.000000000000000000 ) ) ;
#383 = ORIENTED_EDGE ( 'NONE', *, *, #91, .F. ) ;
#384 = VECTOR ( 'NONE', #245, 1000.000000000000000 ) ;
#385 = LINE ( 'NONE', #268, #121 ) ;
#386 = LINE ( 'NONE', #232, #101 ) ;
#387 = CARTESIAN_POINT ( 'NONE',  ( -8.000000000000000000, 2.168404344971008868E-16, 8.500000000000000000 ) ) ;
#388 = ORIENTED_EDGE ( 'NONE', *, *, #213, .T. ) ;
#389 = CARTESIAN_POINT ( 'NONE',  ( -17.50000000000000000, 2.168404344971008868E-16, -8.500000000000000000 ) ) ;
#390 = DIRECTION ( 'NONE',  ( 0.000000000000000000, -1.000000000000000000, 0.000000000000000000 ) ) ;
#391 = DIRECTION ( 'NONE',  ( -0.9535826651341416937, 0.3011313679370973273, 0.000000000000000000 ) ) ;
#392 = EDGE_CURVE ( 'NONE', #8, #260, #78, .T. ) ;
#393 = CARTESIAN_POINT ( 'NONE',  ( -8.000000000000000000, 3.000000000000000000, -8.500000000000000000 ) ) ;
ENDSEC;
END-ISO-10303-21;
