ISO-10303-21;
HEADER;
FILE_DESCRIPTION (( 'STEP AP214' ),
    '1' );
FILE_NAME ('1147056.STEP',
    '2026-03-11T09:25:06',
    ( '' ),
    ( '' ),
    'SwSTEP 2.0',
    'SolidWorks 2024',
    '' );
FILE_SCHEMA (( 'AUTOMOTIVE_DESIGN' ));
ENDSEC;

DATA;
#1 = ORIENTED_EDGE ( 'NONE', *, *, #77, .T. ) ;
#2 = APPLICATION_CONTEXT ( 'automotive_design' ) ;
#3 = VERTEX_POINT ( 'NONE', #226 ) ;
#4 = FACE_OUTER_BOUND ( 'NONE', #89, .T. ) ;
#5 = FACE_OUTER_BOUND ( 'NONE', #123, .T. ) ;
#6 = EDGE_LOOP ( 'NONE', ( #60, #26, #125, #57 ) ) ;
#7 = EDGE_CURVE ( 'NONE', #206, #24, #46, .T. ) ;
#8 = ORIENTED_EDGE ( 'NONE', *, *, #147, .F. ) ;
#9 = ORIENTED_EDGE ( 'NONE', *, *, #51, .T. ) ;
#10 = ADVANCED_FACE ( 'NONE', ( #187 ), #85, .F. ) ;
#11 = DIRECTION ( 'NONE',  ( -0.000000000000000000, 1.000000000000000000, -0.000000000000000000 ) ) ;
#12 = DIRECTION ( 'NONE',  ( 0.000000000000000000, 0.000000000000000000, 1.000000000000000000 ) ) ;
#13 = AXIS2_PLACEMENT_3D ( 'NONE', #215, #160, #219 ) ;
#14 = CARTESIAN_POINT ( 'NONE',  ( 3.386877561412629856, 0.000000000000000000, -12.40000000000000036 ) ) ;
#15 = LINE ( 'NONE', #129, #240 ) ;
#16 = AXIS2_PLACEMENT_3D ( 'NONE', #227, #29, #193 ) ;
#17 = FACE_OUTER_BOUND ( 'NONE', #121, .T. ) ;
#18 = ADVANCED_FACE ( 'NONE', ( #4 ), #243, .F. ) ;
#19 = CARTESIAN_POINT ( 'NONE',  ( -13.91385300341075038, 0.000000000000000000, -12.40000000000000213 ) ) ;
#20 = CARTESIAN_POINT ( 'NONE',  ( -13.91385300341075038, 0.000000000000000000, -12.40000000000000213 ) ) ;
#21 = EDGE_CURVE ( 'NONE', #23, #221, #212, .T. ) ;
#22 = AXIS2_PLACEMENT_3D ( 'NONE', #97, #128, #232 ) ;
#23 = VERTEX_POINT ( 'NONE', #157 ) ;
#24 = VERTEX_POINT ( 'NONE', #251 ) ;
#25 = ORIENTED_EDGE ( 'NONE', *, *, #167, .F. ) ;
#26 = ORIENTED_EDGE ( 'NONE', *, *, #32, .F. ) ;
#27 = EDGE_CURVE ( 'NONE', #28, #24, #52, .T. ) ;
#28 = VERTEX_POINT ( 'NONE', #229 ) ;
#29 = DIRECTION ( 'NONE',  ( 1.002687990242403024E-16, 0.000000000000000000, -1.000000000000000000 ) ) ;
#30 = LINE ( 'NONE', #110, #260 ) ;
#31 =( NAMED_UNIT ( * ) PLANE_ANGLE_UNIT ( ) SI_UNIT ( $, .RADIAN. ) );
#32 = EDGE_CURVE ( 'NONE', #109, #23, #194, .T. ) ;
#33 = FACE_BOUND ( 'NONE', #107, .T. ) ;
#34 = MECHANICAL_DESIGN_GEOMETRIC_PRESENTATION_REPRESENTATION (  '', ( #73 ), #172 ) ;
#35 = EDGE_CURVE ( 'NONE', #208, #206, #132, .T. ) ;
#36 = CARTESIAN_POINT ( 'NONE',  ( 0.000000000000000000, 4.000000000000000000, 0.000000000000000000 ) ) ;
#37 = CYLINDRICAL_SURFACE ( 'NONE', #13, 2.499999999999999112 ) ;
#38 = VERTEX_POINT ( 'NONE', #134 ) ;
#39 = AXIS2_PLACEMENT_3D ( 'NONE', #36, #135, #115 ) ;
#40 = EDGE_CURVE ( 'NONE', #208, #28, #15, .T. ) ;
#41 = ORIENTED_EDGE ( 'NONE', *, *, #143, .F. ) ;
#42 = ORIENTED_EDGE ( 'NONE', *, *, #40, .T. ) ;
#43 = EDGE_LOOP ( 'NONE', ( #42, #170, #149, #92 ) ) ;
#44 = PRESENTATION_LAYER_ASSIGNMENT (  '', '', ( #73 ) ) ;
#45 = AXIS2_PLACEMENT_3D ( 'NONE', #180, #159, #236 ) ;
#46 = LINE ( 'NONE', #185, #64 ) ;
#47 = CARTESIAN_POINT ( 'NONE',  ( 13.91385300341075038, 4.000000000000000000, 12.40000000000000213 ) ) ;
#48 = PRODUCT_DEFINITION_CONTEXT ( 'detailed design', #213, 'design' ) ;
#49 = LINE ( 'NONE', #130, #94 ) ;
#50 =( GEOMETRIC_REPRESENTATION_CONTEXT ( 3 ) GLOBAL_UNCERTAINTY_ASSIGNED_CONTEXT ( ( #71 ) ) GLOBAL_UNIT_ASSIGNED_CONTEXT ( ( #198, #162, #75 ) ) REPRESENTATION_CONTEXT ( 'NONE', 'WORKASPACE' ) );
#51 = EDGE_CURVE ( 'NONE', #144, #102, #49, .T. ) ;
#52 = LINE ( 'NONE', #253, #207 ) ;
#53 = APPLICATION_PROTOCOL_DEFINITION ( 'draft international standard', 'automotive_design', 1998, #213 ) ;
#54 = DIRECTION ( 'NONE',  ( -0.000000000000000000, 1.000000000000000000, -0.000000000000000000 ) ) ;
#55 = LINE ( 'NONE', #177, #63 ) ;
#56 = VECTOR ( 'NONE', #182, 1000.000000000000000 ) ;
#57 = ORIENTED_EDGE ( 'NONE', *, *, #27, .T. ) ;
#58 = CARTESIAN_POINT ( 'NONE',  ( 0.000000000000000000, 0.000000000000000000, 0.000000000000000000 ) ) ;
#59 = LINE ( 'NONE', #138, #122 ) ;
#60 = ORIENTED_EDGE ( 'NONE', *, *, #68, .T. ) ;
#61 = PRODUCT_DEFINITION ( 'UNKNOWN', '', #91, #48 ) ;
#62 = ORIENTED_EDGE ( 'NONE', *, *, #167, .T. ) ;
#63 = VECTOR ( 'NONE', #136, 1000.000000000000000 ) ;
#64 = VECTOR ( 'NONE', #165, 999.9999999999998863 ) ;
#65 = ORIENTED_EDGE ( 'NONE', *, *, #7, .T. ) ;
#66 = ORIENTED_EDGE ( 'NONE', *, *, #21, .F. ) ;
#67 = ORIENTED_EDGE ( 'NONE', *, *, #86, .T. ) ;
#68 = EDGE_CURVE ( 'NONE', #24, #23, #155, .T. ) ;
#69 = PLANE ( 'NONE',  #16 ) ;
#70 = SURFACE_STYLE_FILL_AREA ( #209 ) ;
#71 = UNCERTAINTY_MEASURE_WITH_UNIT (LENGTH_MEASURE( 1.000000000000000082E-05 ), #198, 'distance_accuracy_value', 'NONE');
#72 = DIRECTION ( 'NONE',  ( -0.000000000000000000, -1.000000000000000000, -0.000000000000000000 ) ) ;
#73 = STYLED_ITEM ( 'NONE', ( #74 ), #131 ) ;
#74 = PRESENTATION_STYLE_ASSIGNMENT (( #96 ) ) ;
#75 =( NAMED_UNIT ( * ) SI_UNIT ( $, .STERADIAN. ) SOLID_ANGLE_UNIT ( ) );
#76 = CARTESIAN_POINT ( 'NONE',  ( 0.000000000000000000, 0.000000000000000000, 0.000000000000000000 ) ) ;
#77 = EDGE_CURVE ( 'NONE', #38, #221, #30, .T. ) ;
#78 = PRODUCT_CONTEXT ( 'NONE', #2, 'mechanical' ) ;
#79 = DIRECTION ( 'NONE',  ( 0.000000000000000000, -0.000000000000000000, 1.000000000000000000 ) ) ;
#80 = ORIENTED_EDGE ( 'NONE', *, *, #40, .F. ) ;
#81 = CARTESIAN_POINT ( 'NONE',  ( -13.91385300341075038, 4.000000000000000000, -12.40000000000000213 ) ) ;
#82 = CARTESIAN_POINT ( 'NONE',  ( 0.000000000000000000, 4.000000000000000000, 0.000000000000000000 ) ) ;
#83 = FACE_OUTER_BOUND ( 'NONE', #141, .T. ) ;
#84 = CYLINDRICAL_SURFACE ( 'NONE', #39, 2.499999999999999112 ) ;
#85 = PLANE ( 'NONE',  #220 ) ;
#86 = EDGE_CURVE ( 'NONE', #148, #144, #118, .T. ) ;
#87 = ORIENTED_EDGE ( 'NONE', *, *, #77, .F. ) ;
#88 = CARTESIAN_POINT ( 'NONE',  ( -13.91385300341075038, 4.000000000000000000, -12.40000000000000213 ) ) ;
#89 = EDGE_LOOP ( 'NONE', ( #168, #205, #235, #1 ) ) ;
#90 = ORIENTED_EDGE ( 'NONE', *, *, #7, .F. ) ;
#91 = PRODUCT_DEFINITION_FORMATION_WITH_SPECIFIED_SOURCE ( 'ANY', '', #222, .NOT_KNOWN. ) ;
#92 = ORIENTED_EDGE ( 'NONE', *, *, #259, .T. ) ;
#93 = DIRECTION ( 'NONE',  ( 0.3907311284892712733, 0.000000000000000000, 0.9205048534524414849 ) ) ;
#94 = VECTOR ( 'NONE', #11, 1000.000000000000000 ) ;
#95 = PRODUCT_DEFINITION_SHAPE ( 'NONE', 'NONE',  #61 ) ;
#96 = SURFACE_STYLE_USAGE ( .BOTH. , #175 ) ;
#97 = CARTESIAN_POINT ( 'NONE',  ( 0.000000000000000000, 4.000000000000000000, 0.000000000000000000 ) ) ;
#98 = DIRECTION ( 'NONE',  ( -0.000000000000000000, -1.000000000000000000, -0.000000000000000000 ) ) ;
#99 = VECTOR ( 'NONE', #214, 1000.000000000000000 ) ;
#100 = DIRECTION ( 'NONE',  ( -0.3907311284892713288, -0.000000000000000000, -0.9205048534524413739 ) ) ;
#101 = PLANE ( 'NONE',  #250 ) ;
#102 = VERTEX_POINT ( 'NONE', #151 ) ;
#103 = CARTESIAN_POINT ( 'NONE',  ( 3.386877561412629856, 0.000000000000000000, -12.40000000000000036 ) ) ;
#104 = ADVANCED_FACE ( 'NONE', ( #230 ), #69, .F. ) ;
#105 = ORIENTED_EDGE ( 'NONE', *, *, #27, .F. ) ;
#106 = ORIENTED_EDGE ( 'NONE', *, *, #32, .T. ) ;
#107 = EDGE_LOOP ( 'NONE', ( #67, #225 ) ) ;
#108 = CIRCLE ( 'NONE', #237, 2.499999999999998668 ) ;
#109 = VERTEX_POINT ( 'NONE', #47 ) ;
#110 = CARTESIAN_POINT ( 'NONE',  ( 3.386877561412629856, 4.000000000000000000, -12.40000000000000036 ) ) ;
#111 = CARTESIAN_POINT ( 'NONE',  ( -13.91385300341075038, 4.000000000000000000, -12.40000000000000213 ) ) ;
#112 = UNCERTAINTY_MEASURE_WITH_UNIT (LENGTH_MEASURE( 1.000000000000000082E-05 ), #153, 'distance_accuracy_value', 'NONE');
#113 = CIRCLE ( 'NONE', #218, 2.499999999999999556 ) ;
#114 = DIRECTION ( 'NONE',  ( -0.3907311284892713288, -0.000000000000000000, -0.9205048534524413739 ) ) ;
#115 = DIRECTION ( 'NONE',  ( 0.000000000000000000, 0.000000000000000000, 1.000000000000000000 ) ) ;
#116 = EDGE_CURVE ( 'NONE', #3, #102, #154, .T. ) ;
#117 = DIRECTION ( 'NONE',  ( -0.000000000000000000, 1.000000000000000000, -0.000000000000000000 ) ) ;
#118 = CIRCLE ( 'NONE', #231, 2.499999999999998668 ) ;
#119 = LINE ( 'NONE', #20, #146 ) ;
#120 = LINE ( 'NONE', #140, #211 ) ;
#121 = EDGE_LOOP ( 'NONE', ( #90, #201, #66, #247 ) ) ;
#122 = VECTOR ( 'NONE', #100, 1000.000000000000000 ) ;
#123 = EDGE_LOOP ( 'NONE', ( #65, #105, #80, #169 ) ) ;
#124 = EDGE_LOOP ( 'NONE', ( #256, #87, #150, #106 ) ) ;
#125 = ORIENTED_EDGE ( 'NONE', *, *, #202, .F. ) ;
#126 = VECTOR ( 'NONE', #171, 1000.000000000000000 ) ;
#127 = EDGE_LOOP ( 'NONE', ( #248, #8 ) ) ;
#128 = DIRECTION ( 'NONE',  ( -0.000000000000000000, 1.000000000000000000, -0.000000000000000000 ) ) ;
#129 = CARTESIAN_POINT ( 'NONE',  ( -13.91385300341075038, 4.000000000000000000, -12.40000000000000213 ) ) ;
#130 = CARTESIAN_POINT ( 'NONE',  ( 3.061616997868382155E-16, 4.000000000000000000, -2.499999999999999112 ) ) ;
#131 = MANIFOLD_SOLID_BREP ( 'M6 Gewindebohrung1', #181 ) ;
#132 = LINE ( 'NONE', #111, #99 ) ;
#133 = DIRECTION ( 'NONE',  ( -1.000000000000000000, -0.000000000000000000, -1.002687990242403024E-16 ) ) ;
#134 = CARTESIAN_POINT ( 'NONE',  ( 3.386877561412629856, 4.000000000000000000, -12.40000000000000036 ) ) ;
#135 = DIRECTION ( 'NONE',  ( -0.000000000000000000, 1.000000000000000000, -0.000000000000000000 ) ) ;
#136 = DIRECTION ( 'NONE',  ( -0.000000000000000000, 1.000000000000000000, -0.000000000000000000 ) ) ;
#137 = AXIS2_PLACEMENT_3D ( 'NONE', #88, #244, #261 ) ;
#138 = CARTESIAN_POINT ( 'NONE',  ( 3.386877561412629856, 4.000000000000000000, -12.40000000000000036 ) ) ;
#139 = FACE_OUTER_BOUND ( 'NONE', #190, .T. ) ;
#140 = CARTESIAN_POINT ( 'NONE',  ( -13.91385300341075038, 4.000000000000000000, -12.40000000000000213 ) ) ;
#141 = EDGE_LOOP ( 'NONE', ( #41, #9, #224, #25 ) ) ;
#142 = AXIS2_PLACEMENT_3D ( 'NONE', #145, #223, #204 ) ;
#143 = EDGE_CURVE ( 'NONE', #144, #148, #108, .T. ) ;
#144 = VERTEX_POINT ( 'NONE', #217 ) ;
#145 = CARTESIAN_POINT ( 'NONE',  ( -13.91385300341075038, 4.000000000000000000, -12.40000000000000213 ) ) ;
#146 = VECTOR ( 'NONE', #133, 1000.000000000000000 ) ;
#147 = EDGE_CURVE ( 'NONE', #102, #3, #113, .T. ) ;
#148 = VERTEX_POINT ( 'NONE', #179 ) ;
#149 = ORIENTED_EDGE ( 'NONE', *, *, #216, .T. ) ;
#150 = ORIENTED_EDGE ( 'NONE', *, *, #216, .F. ) ;
#151 = CARTESIAN_POINT ( 'NONE',  ( 3.061616997868382648E-16, 4.000000000000000000, -2.499999999999999556 ) ) ;
#152 = DIRECTION ( 'NONE',  ( -0.000000000000000000, -1.000000000000000000, -0.000000000000000000 ) ) ;
#153 =( LENGTH_UNIT ( ) NAMED_UNIT ( * ) SI_UNIT ( .MILLI., .METRE. ) );
#154 = CIRCLE ( 'NONE', #22, 2.499999999999999556 ) ;
#155 = LINE ( 'NONE', #210, #126 ) ;
#156 = APPLICATION_PROTOCOL_DEFINITION ( 'draft international standard', 'automotive_design', 1998, #2 ) ;
#157 = CARTESIAN_POINT ( 'NONE',  ( 13.91385300341075038, 0.000000000000000000, 12.40000000000000213 ) ) ;
#158 = SHAPE_DEFINITION_REPRESENTATION ( #95, #252 ) ;
#159 = DIRECTION ( 'NONE',  ( 0.000000000000000000, 0.000000000000000000, 1.000000000000000000 ) ) ;
#160 = DIRECTION ( 'NONE',  ( -0.000000000000000000, 1.000000000000000000, -0.000000000000000000 ) ) ;
#161 = FACE_OUTER_BOUND ( 'NONE', #43, .T. ) ;
#162 =( NAMED_UNIT ( * ) PLANE_ANGLE_UNIT ( ) SI_UNIT ( $, .RADIAN. ) );
#163 = COLOUR_RGB ( '',0.7921568627450980005, 0.8196078431372548767, 0.9333333333333333481 ) ;
#164 = CARTESIAN_POINT ( 'NONE',  ( 3.386877561412629856, 4.000000000000000000, -12.40000000000000036 ) ) ;
#165 = DIRECTION ( 'NONE',  ( 0.3907311284892712733, 0.000000000000000000, 0.9205048534524414849 ) ) ;
#166 = PLANE ( 'NONE',  #137 ) ;
#167 = EDGE_CURVE ( 'NONE', #148, #3, #55, .T. ) ;
#168 = ORIENTED_EDGE ( 'NONE', *, *, #241, .T. ) ;
#169 = ORIENTED_EDGE ( 'NONE', *, *, #35, .T. ) ;
#170 = ORIENTED_EDGE ( 'NONE', *, *, #202, .T. ) ;
#171 = DIRECTION ( 'NONE',  ( 1.000000000000000000, 0.000000000000000000, 1.002687990242403024E-16 ) ) ;
#172 =( GEOMETRIC_REPRESENTATION_CONTEXT ( 3 ) GLOBAL_UNCERTAINTY_ASSIGNED_CONTEXT ( ( #112 ) ) GLOBAL_UNIT_ASSIGNED_CONTEXT ( ( #153, #31, #197 ) ) REPRESENTATION_CONTEXT ( 'NONE', 'WORKASPACE' ) );
#173 = CARTESIAN_POINT ( 'NONE',  ( 13.91385300341075038, 4.000000000000000000, 12.40000000000000213 ) ) ;
#174 = ADVANCED_FACE ( 'NONE', ( #255, #161 ), #101, .T. ) ;
#175 = SURFACE_SIDE_STYLE ('',( #70 ) ) ;
#176 = FILL_AREA_STYLE_COLOUR ( '', #163 ) ;
#177 = CARTESIAN_POINT ( 'NONE',  ( 0.000000000000000000, 4.000000000000000000, 2.499999999999999112 ) ) ;
#178 = DIRECTION ( 'NONE',  ( 0.000000000000000000, -0.000000000000000000, 1.000000000000000000 ) ) ;
#179 = CARTESIAN_POINT ( 'NONE',  ( 0.000000000000000000, 0.000000000000000000, 2.499999999999998668 ) ) ;
#180 = CARTESIAN_POINT ( 'NONE',  ( 0.000000000000000000, 0.000000000000000000, 0.000000000000000000 ) ) ;
#181 = CLOSED_SHELL ( 'NONE', ( #234, #191, #104, #10, #18, #174, #195, #200 ) ) ;
#182 = DIRECTION ( 'NONE',  ( 1.000000000000000000, 0.000000000000000000, 1.002687990242403024E-16 ) ) ;
#183 = DIRECTION ( 'NONE',  ( 0.000000000000000000, 1.000000000000000000, 0.000000000000000000 ) ) ;
#184 = PLANE ( 'NONE',  #257 ) ;
#185 = CARTESIAN_POINT ( 'NONE',  ( -13.91385300341075038, 0.000000000000000000, -12.40000000000000213 ) ) ;
#186 = DIRECTION ( 'NONE',  ( 0.3907311284892713288, 0.000000000000000000, 0.9205048534524413739 ) ) ;
#187 = FACE_OUTER_BOUND ( 'NONE', #124, .T. ) ;
#188 = ORIENTED_EDGE ( 'NONE', *, *, #51, .F. ) ;
#189 = VECTOR ( 'NONE', #98, 1000.000000000000000 ) ;
#190 = EDGE_LOOP ( 'NONE', ( #188, #203, #62, #245 ) ) ;
#191 = ADVANCED_FACE ( 'NONE', ( #5 ), #166, .F. ) ;
#192 = CARTESIAN_POINT ( 'NONE',  ( 0.000000000000000000, 4.000000000000000000, 0.000000000000000000 ) ) ;
#193 = DIRECTION ( 'NONE',  ( -1.000000000000000000, 0.000000000000000000, -1.002687990242403024E-16 ) ) ;
#194 = LINE ( 'NONE', #173, #189 ) ;
#195 = ADVANCED_FACE ( 'NONE', ( #33, #17 ), #184, .F. ) ;
#196 = DIRECTION ( 'NONE',  ( 0.000000000000000000, 0.000000000000000000, 1.000000000000000000 ) ) ;
#197 =( NAMED_UNIT ( * ) SI_UNIT ( $, .STERADIAN. ) SOLID_ANGLE_UNIT ( ) );
#198 =( LENGTH_UNIT ( ) NAMED_UNIT ( * ) SI_UNIT ( .MILLI., .METRE. ) );
#199 = DIRECTION ( 'NONE',  ( 0.000000000000000000, 0.000000000000000000, 1.000000000000000000 ) ) ;
#200 = ADVANCED_FACE ( 'NONE', ( #139 ), #37, .F. ) ;
#201 = ORIENTED_EDGE ( 'NONE', *, *, #241, .F. ) ;
#202 = EDGE_CURVE ( 'NONE', #28, #109, #254, .T. ) ;
#203 = ORIENTED_EDGE ( 'NONE', *, *, #86, .F. ) ;
#204 = DIRECTION ( 'NONE',  ( 1.000000000000000000, 0.000000000000000000, 1.002687990242403024E-16 ) ) ;
#205 = ORIENTED_EDGE ( 'NONE', *, *, #35, .F. ) ;
#206 = VERTEX_POINT ( 'NONE', #19 ) ;
#207 = VECTOR ( 'NONE', #72, 1000.000000000000000 ) ;
#208 = VERTEX_POINT ( 'NONE', #81 ) ;
#209 = FILL_AREA_STYLE ('',( #176 ) ) ;
#210 = CARTESIAN_POINT ( 'NONE',  ( -3.386877561412633408, 0.000000000000000000, 12.40000000000000036 ) ) ;
#211 = VECTOR ( 'NONE', #238, 1000.000000000000000 ) ;
#212 = LINE ( 'NONE', #14, #246 ) ;
#213 = APPLICATION_CONTEXT ( 'automotive_design' ) ;
#214 = DIRECTION ( 'NONE',  ( -0.000000000000000000, -1.000000000000000000, -0.000000000000000000 ) ) ;
#215 = CARTESIAN_POINT ( 'NONE',  ( 0.000000000000000000, 4.000000000000000000, 0.000000000000000000 ) ) ;
#216 = EDGE_CURVE ( 'NONE', #109, #38, #59, .T. ) ;
#217 = CARTESIAN_POINT ( 'NONE',  ( 3.061616997868382155E-16, 0.000000000000000000, -2.499999999999998668 ) ) ;
#218 = AXIS2_PLACEMENT_3D ( 'NONE', #192, #117, #199 ) ;
#219 = DIRECTION ( 'NONE',  ( 0.000000000000000000, 0.000000000000000000, 1.000000000000000000 ) ) ;
#220 = AXIS2_PLACEMENT_3D ( 'NONE', #164, #242, #186 ) ;
#221 = VERTEX_POINT ( 'NONE', #103 ) ;
#222 = PRODUCT ( '1147056', '1147056', '', ( #78 ) ) ;
#223 = DIRECTION ( 'NONE',  ( -1.002687990242403024E-16, 0.000000000000000000, 1.000000000000000000 ) ) ;
#224 = ORIENTED_EDGE ( 'NONE', *, *, #147, .T. ) ;
#225 = ORIENTED_EDGE ( 'NONE', *, *, #143, .T. ) ;
#226 = CARTESIAN_POINT ( 'NONE',  ( 0.000000000000000000, 4.000000000000000000, 2.499999999999999556 ) ) ;
#227 = CARTESIAN_POINT ( 'NONE',  ( -3.386877561412633408, 4.000000000000000000, 12.40000000000000036 ) ) ;
#228 = PRODUCT_RELATED_PRODUCT_CATEGORY ( 'part', '', ( #222 ) ) ;
#229 = CARTESIAN_POINT ( 'NONE',  ( -3.386877561412633408, 4.000000000000000000, 12.40000000000000036 ) ) ;
#230 = FACE_OUTER_BOUND ( 'NONE', #6, .T. ) ;
#231 = AXIS2_PLACEMENT_3D ( 'NONE', #76, #249, #196 ) ;
#232 = DIRECTION ( 'NONE',  ( 0.000000000000000000, 0.000000000000000000, 1.000000000000000000 ) ) ;
#233 = CARTESIAN_POINT ( 'NONE',  ( 0.000000000000000000, 0.000000000000000000, 0.000000000000000000 ) ) ;
#234 = ADVANCED_FACE ( 'NONE', ( #83 ), #84, .F. ) ;
#235 = ORIENTED_EDGE ( 'NONE', *, *, #259, .F. ) ;
#236 = DIRECTION ( 'NONE',  ( 1.000000000000000000, 0.000000000000000000, 0.000000000000000000 ) ) ;
#237 = AXIS2_PLACEMENT_3D ( 'NONE', #233, #54, #12 ) ;
#238 = DIRECTION ( 'NONE',  ( -1.000000000000000000, -0.000000000000000000, -1.002687990242403024E-16 ) ) ;
#239 = CARTESIAN_POINT ( 'NONE',  ( -3.386877561412633408, 4.000000000000000000, 12.40000000000000036 ) ) ;
#240 = VECTOR ( 'NONE', #93, 999.9999999999998863 ) ;
#241 = EDGE_CURVE ( 'NONE', #221, #206, #119, .T. ) ;
#242 = DIRECTION ( 'NONE',  ( -0.9205048534524413739, 0.000000000000000000, 0.3907311284892713288 ) ) ;
#243 = PLANE ( 'NONE',  #142 ) ;
#244 = DIRECTION ( 'NONE',  ( 0.9205048534524414849, 0.000000000000000000, -0.3907311284892712733 ) ) ;
#245 = ORIENTED_EDGE ( 'NONE', *, *, #116, .T. ) ;
#246 = VECTOR ( 'NONE', #114, 1000.000000000000000 ) ;
#247 = ORIENTED_EDGE ( 'NONE', *, *, #68, .F. ) ;
#248 = ORIENTED_EDGE ( 'NONE', *, *, #116, .F. ) ;
#249 = DIRECTION ( 'NONE',  ( -0.000000000000000000, 1.000000000000000000, -0.000000000000000000 ) ) ;
#250 = AXIS2_PLACEMENT_3D ( 'NONE', #82, #183, #79 ) ;
#251 = CARTESIAN_POINT ( 'NONE',  ( -3.386877561412633408, 0.000000000000000000, 12.40000000000000036 ) ) ;
#252 = ADVANCED_BREP_SHAPE_REPRESENTATION ( '1147056', ( #131, #45 ), #50 ) ;
#253 = CARTESIAN_POINT ( 'NONE',  ( -3.386877561412633408, 4.000000000000000000, 12.40000000000000036 ) ) ;
#254 = LINE ( 'NONE', #239, #56 ) ;
#255 = FACE_BOUND ( 'NONE', #127, .T. ) ;
#256 = ORIENTED_EDGE ( 'NONE', *, *, #21, .T. ) ;
#257 = AXIS2_PLACEMENT_3D ( 'NONE', #58, #258, #178 ) ;
#258 = DIRECTION ( 'NONE',  ( 0.000000000000000000, 1.000000000000000000, 0.000000000000000000 ) ) ;
#259 = EDGE_CURVE ( 'NONE', #38, #208, #120, .T. ) ;
#260 = VECTOR ( 'NONE', #152, 1000.000000000000000 ) ;
#261 = DIRECTION ( 'NONE',  ( -0.3907311284892712733, 0.000000000000000000, -0.9205048534524414849 ) ) ;
ENDSEC;
END-ISO-10303-21;
